Obituary - Kill For Me Chords & Tabs

 

Kill For Me Chords & Tabs

Obituary Chords & Tabs

Version: 1 Type: Tab 0 ratings
1 star 2 stars 3 stars 4 stars 5 stars
comments

Kill For Me Tab

   
                            OBITUARY - KILL FOR ME
                         From the Album - WORLD DEMISE
                       Copyright: ROADRUNNER RECORDS 1994
                         Version 1.0 - Nov,29 2001 4:20


Transcribed by: James Williams (Inverted)

For Questions, Comments, Newest Version, or Corrections contact
Inverted: at Inverted_one@hotmail.com

Check Out Death8699.com Metaltabs.com or dsrmusic.com for More
Transcriptions:http://www.Death8699.com http://www.Metaltabs.com


.  - palm mute           /  - slide up to
\  - slide down to       ~  - vibrato
h  - hammer on           b  - Bend
p  - pull off            Suffixes for bend
t  - tap                 f  - full bend    h - half bend
ph - pinched harmonic    q  - quarter bend t - tap bend
*  - see comment         ^  - Hold bend    r release bend
x  - Stuccatto           ~  - vibrato bend
,  - slight palm mute    () - ghost note, sustained note
"  - tremolo note        <> - Trill

KILL FOR ME...

Tuning: "D"G"C"F"A"D"

Riff 1
|----------------------------------------------------------|
|----------------------------------------------------------|
|----------------------------------------------------------|
|--2------5/4-5--2------5/4-6--2------5/4-5--2------5/4-6--|
|--2------5/4-5--2------5/4-6--2------5/4-5--2------5/4-6--|
|--0-0000-3/2-3--0-0000-3/2-4--0-0000-3/2-3--0-0000-3/2-4--|
[ Tab from: http://www.guitartabs.cc/tabs/o/obituary/kill_for_me_tab.html ]
Riff 2
|----------------------------------------------------------|
|----------------------------------------------------------|
|----------------------------------------------------------|
|--2------5/4-5--2------5/4-6--2------5/4-6--2------5/4-6--|
|--2------5/4-5--2------5/4-6--2------5/4-6--2------5/4-6--|
|--0--0-0-3/2-3--0--0-0-3/2-4--0--0-0-3/2-4--0--0-0-3/2-4--|
pm    . .           . .           . .           . .

Riff 3-A Gtr I
|----------------------------------------------------|
|----------------------------------------------------|
|----------------------------------------------------|
|----------5----------5\7-6----------5----------2\3--|
|----------3----------3\5-4----------3----------2\3--|
|--0-0-0-0-3----------3\5-4--0-0-0-0-3----------0\1--|
pm . . . .                   . . . .

Riff 3-B Gtr II 1st time
|----------------------------------------------------|
|----------------------------------------------------|
|----------------------------------------------------|
|--2-2-----------------------2-2---------------------|
|--2-2-----------------------2-2---------------------|
|--0-0-----------------------0-0---------------------|
pm . .                       . .

Riff 3-B Gtr II 2nd time
|-----------------------------------------------------|
|-----------------------------------------------------|
|-----------------------------------------------------|
|--2-2-----------------------2-2----------------2-3x--|
|--2-2-----------------------2-2----------------2-3x--|
|--0-0-----------------------0-0----------------0-1x--|
pm . .                       . .

Riff 3
|----------------------------------------------------|
|----------------------------------------------------|
|----------------------------------------------------|
|----------5----------5\7-6----------5----------2\3--|
|----------3----------3\5-4----------3----------2\1--|
|--0-0-0-0-3--0-0-0-0-3\5-4--0-0-0-0-3--0-0-0-0-0\1--|
pm . . . .    . . . .        . . . .    . . . .


Check ouy my other tabs by Obituary, Hypocrisy, Grave
and Six Feet Under.
Comments