Obituary - Final Thoughts Chords & Tabs

 

Final Thoughts Chords & Tabs

Obituary Chords & Tabs

Version: 2 Type: Tab 0 ratings
1 star 2 stars 3 stars 4 stars 5 stars
comments

Final Thoughts Tab

   
-------------------------------------------------------------------------------
			     Final thoughts - Obituary
-------------------------------------------------------------------------------
Tabbed by: DeathMetalHero
Email: The_dster1@hotmail.com

Album: World Demise (1994)

Tuning: B, could be played in C if necessary

INTRO/CHORUS

|-----------------------------------------------------------------------------|
|-----------------------------------------------------------------------------|
|-----------------------------------------------------------------------------|
|-3-3-3--3-3-3----------------------------------------------------------------|
|-3-3-3--3-3-3----------------------------------------------------------------|
|-3-3-3--3-3-3----------------------------------------------------------------|
Repeat as necessary, you will be able to figure it out, very simple stuff

VERSE

|-----------------------------------------------------------------------------|
|-----------------------------------------------------------------------------|
|-----------------------------------------------------------------------------|
|-3-3-3-3--8--3-3-3-3--6-7-6--------------------------------------------------|
|-3-3-3-3--8--3-3-3-3--6-7-6--------------------------------------------------|
|-3-3-3-3--8--3-3-3-3--6-7-6--------------------------------------------------|
Repeat as necessary, again it is simple to figure out

BRIDGE INTO SOLO
[ Tab from: http://www.guitartabs.cc/tabs/o/obituary/final_thoughts_tab_ver_2.html ]
|-----------------------------------------------------------------------------|
|-----------------------------------------------------------------------------|
|-----------------------------------------------------------------------------|
|-----------------------------------------------------------------------------|
|-------------4-4-4-----------------------------------------------------------|
|-3-3-3-6-6-6-------6-6-4-4-6-6-----------------------------------------------|
Repeat as necessary

|-----------------------------------------------------------------------------|
|-----------------------------------------------------------------------------|
|-----------------------------------------------------------------------------|
|-----------------------------------------------------------------------------|
|-----------------------------------------------------------------------------|
|-3-3-3-6-6-6-4-4-4-7-7-7-4-4-------------------------------------------------|
Repeat as necessary, this is second variation on the first riff

SOLO (Incomplete)

|-----------------------------------------------------------------------------|
|----------------4---4-6-8-6-8-9-11-9-8h9h8h9h8h9h8-6-8-----------------------|
|----------3-5-6---6----------------------------------------------------------|
|-3--3-5-6--------------------------------------------------------------------|
|-----------------------------------------------------------------------------|
|-----------------------------------------------------------------------------|

ANY CORRECTIONS OR HELP WITH SOLO WOULD BE MUCH APPRECIATED. HAVE FUN!

| /  slide up
| \  slide down
| h  hammer-on
| p  pull-off
| ~  vibrato
| +  harmonic
| x  Mute note
===============================================================================
Comments