Obituary - Body Bag Chords & Tabs

 

Body Bag Chords & Tabs

Obituary Chords & Tabs

Version: 1 Type: Tab 0 ratings
1 star 2 stars 3 stars 4 stars 5 stars
comments

Body Bag Tab

Solo from Body Bag (by Obituary)

  
NOTATION LEGEND
---------------
PM--|  |---| Palm Mute
H hammer on
P pull off
\ slide
BD bar dive
BU bar up
< > pick harmonics
~ vibrato   
[ Tab from: http://www.guitartabs.cc/tabs/o/obituary/body_bag_tab.html ]
E|--------------------------------------------------------------------------|
B|--------------------------------------------------------------------------|
G|--BU--------BU-----5~--4-5~-4----5-4-7-5-4--------------------------------|
D|--/5---------/9----------------------------7-5-4-<4>~----4h5p4------------|
A|---------------------------------------------------------------7-5-4-5-7--|
E|--------------------------------------------------------------------------|
                           PM-|      |------------|              |--------

   ------------------------------------------------------|
   ------------------------------------------------------|
   -------4----------------------------------------------|
   -4-5-7---7-5-4-5-4h5p4-2-4----------------------------|
   ---------------------------3h5p3\2h3p2--------BD------|
   ---------------------------------------5-4-2-0\-------|
   ------|  |----|
Comments