Oasis - Wonederwall Chords & Tabs

 

Wonederwall Chords & Tabs

Oasis Chords & Tabs

Version: 1 Type: Bass Tab 0 ratings
1 star 2 stars 3 stars 4 stars 5 stars
comments

Wonederwall Bass Tab

WONDERWALL Bass Tabs (Josh's Version)


(Back Beat the word is on the street...)
G--------------------------------------------------------------|
D--------------------------------------------------------------|
A--2-2-2-2-----7-7-7-7--------------------2-2-2-2-----7-7-7-7--|
E-----------------------2-2-2--5-5-5-5-------------------------|

G----------------------------------------|
D----------------------------------------|
A--------------------2-2-2-2-----7-7-7-7-|
E--2-2-2--5-5-5-5------------------------|

(I dont believe that anybody...)
G----------------------------------------|
D----------------------------------------|
A--------------------2-2-2-2-----7-7-7-7-|
E--2-2-2--5-5-5-5------------------------|

G----------------------------------------|
D----------------------------------------|
A--------------------2-2-2-2-----7-7-7-7-|
E--2-2-2--5-5-5-5------------------------|

Pre-chorus(and all the roads...)
G----------------------------------|
D----------------------------------|
A--5-5-5-5-7-7-7-7-9-9-9-9-9-9-9-9-|
E----------------------------------|

G----------------------------------|
D----------------------------------|
A--5-5-5-5-7-7-7-7-9-9-9-9-9-9-9-9-|
E----------------------------------|

G----------------------------------|
D----------------------------------|
A--5-5-5-5-7-7-7-7-9-9-9-9-9-9-9-9-|
E----------------------------------|
                    (I'd Like to say...)
G------------------I-----------------|
D------------------I-----------------|
A--5-5-5-5-7-7-7-7-I-12-11-9-12-14---|
E------------------I-----------------|

Chorus(maybe...)

G---------------------------------|
D---------------------------------|
A--5-5-5-5-9-9-9-9-12-12-12-12----|
E---------------------------------|
E---------------------------------|

G---------------------------------|
D---------------------------------|
A--5-5-5-5-9-9-9-9-12-12-12-12----|
E---------------------------------|


G---------------------------------|
D---------------------------------|
A--5-5-5-5-9-9-9-9-12-12-12-12----|
E---------------------------------|


G---------------------------------|
D---------------------------------|
A--5-5-5-5-9-9-9-9-12-12-12-12----|
E---------------------------------|

Verse 2(Today was gonna...)
G-----------------------------------------|
D-----------------------------------------|
A---------------------2-2-2-2-----7-7-7-7-|
E---2-2-2--5-5-5-5------------------------|

G----------------------------------------|
D----------------------------------------|
A--------------------2-2-2-2-----7-7-7-7-|
E--2-2-2--5-5-5-5------------------------|

(I dont believe that anybody...)
G----------------------------------------|
D----------------------------------------|
A--------------------2-2-2-2-----7-7-7-7-|
E--2-2-2--5-5-5-5------------------------|
[ Tab from: http://www.guitartabs.cc/tabs/o/oasis/wonederwall_btab.html ]
G----------------------------------------|
D----------------------------------------|
A--------------------2-2-2-2-----7-7-7-7-|
E--2-2-2--5-5-5-5------------------------|

Pre-chorus(and all the roads...)
G----------------------------------|
D----------------------------------|
A--5-5-5-5-7-7-7-7-9-9-9-9-9-9-9-9-|
E----------------------------------|

G----------------------------------|
D----------------------------------|
A--5-5-5-5-7-7-7-7-9-9-9-9-9-9-9-9-|
E----------------------------------|

G----------------------------------|
D----------------------------------|
A--5-5-5-5-7-7-7-7-9-9-9-9-9-9-9-9-|
E----------------------------------|
                    (I'd Like to say...)
G------------------I---------------|
D------------------I---------------|
A--5-5-5-5-7-7-7-7-I9--7--5-5-7----|
E------------------I---------------|

Chorus( I said maybe...)
G--------------------------------------|
D--------------------------------------|
A--5-5-5-5-9-9-9-9-12-12-12-12-9-9-9-9-|
E--------------------------------------|

G--------------------------------------|
D--------------------------------------|
A--5-5-5-5-9-9-9-9-12-12-12-12-9-9-9-9-|
E--------------------------------------|

G--------------------------------------|
D--------------------------------------|
A--5-5-5-5-9-9-9-9-12-12-12-12-9-9-9-9-|
E--------------------------------------|

G--------------------------------------|
D--------------------------------------|
A--5-5-5-5-9-9-9-9-12-12-12-12-9-9-9-9-|
E--------------------------------------|

Chorus(I said maybe...)
G--------------------------------------|
D--------------------------------------|
A--5-5-5-5-9-9-9-9-12-12-12-12-9-9-9-9-|
E--------------------------------------|

(Yer gonna be the one that saves me)
G--------------------------------------|
D--------------------------------------|
A--5-5-5-5-9-9-9-9-12-12-12-12-9-9-9-9-|
E--------------------------------------|

(Yer gonna be the one that saves me)
G--------------------------------------|
D--------------------------------------|
A--5-5-5-5-9-9-9-9-12-12-12-12-9-9-9-9-|
E--------------------------------------|

(Yer gonna be the one that saves me)
G--------------------------------------|
D--------------------------------------|
A--5-5-5-5-9-9-9-9-12-12-12-12-9-9-9-9-|
E--------------------------------------|

G--------------------------------------|
D--------------------------------------|
A--5-5-5-5-9-9-9-9-12-12-12-12-9-9-9-9-|
E--------------------------------------|

G--------------------------------------|
D--------------------------------------|
A--5-5-5-5-9-9-9-9-12-12-12-12-9-9-9-9-|
E--------------------------------------|

G--------------------------------------|
D--------------------------------------|
A--5-5-5-5-9-9-9-9-12-12-12-12-9-9-9-9-|
E--------------------------------------|


G---------------------------------------------|
D---------------------------------------------|
A--5-5-5-5-9-9-9-9-12-12-12-12-9----------2/9-|
E---------------------------------------------|
Comments