Oasis - Wonderwall Chords & Tabs

 

Wonderwall Chords & Tabs

Oasis Chords & Tabs

Version: 3 Type: Tab 0 ratings
1 star 2 stars 3 stars 4 stars 5 stars
comments

Wonderwall Tab

   
Song: Wonderwall
Artist: Oasis
Album: (What's The Story) Morning Glory?

Tabbed by: Kasper Dziurdz


Tuning: EADGBE
Tempo: 90
Capo: 2nd fret

h - hammer on
p - pull off



Rhythm Figure 1

   Em7             G                 Dsus4         A7sus4
E|-3---3---3-----3-3-3-3---3---3-3-|-3-3-3---3---3-3---3---3-3-3-3-3-|
B|-3---3---3-----3-3-3-3---3---3-3-|-3-3-3---3---3-3---3---3-3-3-3-3-|
G|-0---0---0-----0-0-0-0---0---0-0-|-2-2-2---2---0-2---2---2-2-2-0-0-|
D|-2---2---2-----0-0-0-0---0---0-0-|-0-0-0---0---0-2---2---2-2-2-0-0-|
A|-2---2---2-----2-2-2-2---2---2-2-|---------------0---0---0-0-0-0-0-|
E|-0---0---0-----0-3-3-3---3---3-3-|---------------------------------|

   Em7             G                 Dsus4         A7sus4
E|-3---3---3-----3-3-3-3---3-----3-|-3-3-3---3---3-3---3-3-3-3-3-3-3-|
B|-3---3---3-----3-3-3-3---3-----3-|-3-3-3---3---3-3---3-3-3-3-3-3-3-|
G|-0---0---0-----0-0-0-0---0-----0-|-2-2-2---2---0-2---2-2-2-2-2-0-0-|
D|-2---2---2-----0-0-0-0---0-----0-|-0-0-0---0---0-2---2-2-2-2-2-0-0-|
A|-2---2---2-----2-2-2-2---2-----2-|---------------0---0-0-0-0-0-0-0-|
E|-0---0---0-----0-3-3-3---3-----3-|---------------------------------|

   Em7             G                 Dsus4         A7sus4
E|-3---3---3-----3-3-3-3---3---3-3-|-3-3-3---3---3-3---3-3-3-3-3-3-3-|
B|-3---3---3-----3-3-3-3---3---3-3-|-3-3-3---3---3-3---3-3-3-3-3-3-3-|
G|-0---0---0-----0-0-0-0---0---0-0-|-2-2-2---2---0-2---2-2-2-2-2-0-0-|
D|-2---2---2-----0-0-0-0---0---0-0-|-0-0-0---0---0-2---2-2-2-2-2-0-0-|
A|-2---2---2-----2-2-2-2---2---2-2-|---------------0---0-0-0-0-0-0-0-|
E|-0---0---0-----0-3-3-3---3---3-3-|---------------------------------|

  continue simile ...


Rhythm Figure 2

   Cmaj7         Dsus4               A7sus4
E|-3---3---3-3-3-3---3-3-3-3-3-3-3-|-3-3-3---3---3-3---3-3-3-3-3-3-3-|
B|-0---0---0-0-0-3---3-3-3-3-3-0-0-|-0-0-3---3---3-3---3-3-3-3-3-0-0-|
G|-0---0---0-0-0-2---2-2-2-2-2-0-0-|-0-0-0---0---0-0---0-0-0-0-0-0-0-|
D|-2---2---2-2-2-0---0-0-0-0-0-0-0-|-0-0-2---2---2-2---2-2-2-2-2-0-0-|
A|-3---3---3-3-3-------------------|-----0---0---0-0---0-0-0-0-0-----|
E|---------------------------------|---------------------------------|


Riff A

   Csus2           D                 Em
E|-----3-----------2h3p2-----------|---------------------------------|
B|---------1-------------3---------|---------------------------------|
G|-------------0-------------2-----|---------------0---------0-------|
D|---------------0-----------------|---------0-----------0h2-----0---|
A|-3-------------------------------|-----0h2-------------------------|
E|---------------------------------|-0-------------------------------|
[ Tab from: http://www.guitartabs.cc/tabs/o/oasis/wonderwall_tab_ver_3.html ]
   Csus2           D                 Em
E|-----3-----------2h3p2-----------|---------------------------------|
B|---------1-------------3---------|---------------------------------|
G|-------------0-------------2-----|---------------0---------0-------|
D|---------------0-----------------|---------0-----------0h2-----0---|
A|-3-------------------------------|-----0h2-------------------------|
E|---------------------------------|-0-------------------------------|

   Csus2           D                 G       G/F#    Em7
E|-----3-----------2h3p2-----------|---3-------3-------3-------3-----|
B|---------1-------------3---------|-----3-------3-------3-------3---|
G|-------------0-------------2-----|-------0-------0-------0-------0-|
D|---------------0-----------------|---------------------------------|
A|-3-------------------------------|---------------------------------|
E|---------------------------------|-3-------2-------0-------0-------|

   A7sus4
E|---------0-------------0---------|---------0-----------------------|
B|-----3-------3-------3-----3-----|-----3-------3-------3-----3-----|
G|---0-----------0---0-----------0-|---0-----------0---0-----0---0---|
D|---------------------------------|-----------------------2-------2-|
A|-0---------------0---------------|-0---------------0---------------|
E|---------------------------------|---------------------------------|


Rhythm Figure 3

   Cadd9           Em7               G             Em7
E|---------------------------------|---------------------------------|
B|-3---3---3-----3-3-3-3---3-----3-|-3-3-3---3---3-3---3-3-3-3---3-3-|
G|-0---0---0-----0-0-0-0---0-----0-|-0-0-0---0---0-0---0-0-0-0---0-0-|
D|-2---2---2-----0-2-2-2---2-----0-|-0-0-0---0---0-2---2-2-2-2---2-2-|
A|-3---3---3-----0-2-2-2---2-----2-|-2-2-2---2---2-2---2-2-2-2---2-2-|
E|-----------------0-0-0---0-----0-|-3-3-3---3---3-0---0-0-0-0---0-0-|

  continue simile ...


Rhythm Figure 4

   Cadd9           Em7
E|---------------------------------|
B|-3---3---3-----3-3-3-3---3-----3-|
G|-0---0---0-----0-0-0-0---0-----0-|
D|-2---2---2-----0-2-2-2---2-----0-|
A|-3---3---3-----0-2-2-2---2-----2-|
E|-----------------0-0-0---0-----0-|

   G             Em7
E|-----------------|---------------------------------|
B|-3-3-3---3-----3-|---------------------------------|
G|-0-0-0---0-----0-|---------------------------------|
D|-0-0-0---0-----2-|---------------------------------|
A|-2-2-2---2-----2-|---------------------------------|
E|-3-3-3---3-----0-|---------------------------------|

                   A7sus4
E|---------------------------------|
B|-----------------3-3-3-3-3-3-3-3-|
G|-----------------0-0-0-0-0-0-0-0-|
D|-----------------2-2-2-2-2-2-2-2-|
A|-----------------0-0-0-0-0-0-0-0-|
E|---------------------------------|


Rhythm Figure 5

   Cadd9           Em7               G           Em
E|---------------------------------|-------------0-------------------|
B|-3---3---3-----3-3-3-3---3-----3-|-3-3-3---3---0-------------------|
G|-0---0---0-----0-0-0-0---0-----0-|-0-0-0---0---0-------------------|
D|-2---2---2-----0-2-2-2---2-----0-|-0-0-0---0---2-------------------|
A|-3---3---3-----0-2-2-2---2-----2-|-2-2-2---2---2-------------------|
E|-----------------0-0-0---0-----0-|-3-3-3---3---0-------------------|



[Rhythm Figure 1]
[Rhythm Figure 2]
[Rhythm Figure 1]
[Riff A]
[Rhythm Figure 3]
[Rhythm Figure 4]
[Rhythm Figure 1]
[Riff A]
[Rhythm Figure 3]
[Rhythm Figure 5]
Comments