Oasis - Wonderwall Chords & Tabs

 

Wonderwall Chords & Tabs

Oasis Chords & Tabs

Version: 1 Type: Chords 4 ratings
1 star 2 stars 3 stars 4 stars 5 stars
comments

Wonderwall Chords

   
Oasis - Wonderwall
By: gonza
gserradasduarte@hotmail.com

Verses and ending

E|------3---------3---------3---------3---------|
B|------3---------3---------3---------3---------|
G|------0---------0---------2---------0---------|
D|------2---------0---------0---------2---------|
A|------2---------2---------0---------0---------|
E|------0---------3---------x---------x---------|
[ Tab from: http://www.guitartabs.cc/tabs/o/oasis/wonderwall_crd.html ]
Chorus
      C       D       Em      C       D       Em
E|----0-------2-------0-------0-------2-------0--
B|----1-------3-------0-------1-------3-------0--
G|----0-------2-------0-------0-------2-------0--
D|----2-------0-------2-------2-------0-------2--
A|----3-------0-------2-------3-------0-------2--
E|----3-------x-------0-------3-------x-------0--
    C       D       G       Em      Am
----0-------2-------3-------0-------0-----|
----1-------3-------3-------0-------1-----|
----0-------2-------0-------0-------2-----|
----2-------0-------0-------2-------2-----|
----3-------0-------2-------2-------0-----|
----3-------x-------3-------0-------0-----|

The tab is the original. Put a cap on the 2nd fret. More to come
Gonza
Comments