Oasis - Where Did It All Go Wrong Chords & Tabs

 

Where Did It All Go Wrong Chords & Tabs

Oasis Chords & Tabs

Version: 1 Type: Tab 0 ratings
1 star 2 stars 3 stars 4 stars 5 stars
comments

Where Did It All Go Wrong Tab

 e-------------------------------12h14p12-15b17-12------
 b-15b17-15 12h14p12----------15b17-15-------------15b17-15
 g-----------------14-12--------------------------------
 d-----------------------14-----------------------------
 a------------------------------------------------------
 e------------------------------------------------------
[ Tab from: http://www.guitartabs.cc/tabs/o/oasis/where_did_it_all_go_wrong_tab.html ]
 e--------------------------------------------------------------
 b-7-9-7--------------------------------------------------------
 g-------9-7-7h9------------------------------------------------
 d-----------------------6h8b9-8-6---8b9-8b9-8b9-6--------------
 a---------------6h8-6h8-----------8---------------8-6----------
 e-----------------------------------------------------8-6-4-1--
Comments