Oasis - Whatever Chords & Tabs

 

Whatever Chords & Tabs

Oasis Chords & Tabs

Version: 1 Type: Bass Tab 0 ratings
1 star 2 stars 3 stars 4 stars 5 stars
comments

Whatever Bass Tab

Song Title: Whatever
Artist: Oasis
----------------------------------------------

OASIS - "Whatever" - Bass Tab

						  _______
Verse:					|1.
|-----------------|-----------------|-----------------|
|-----------------|-2-2-2-2---------|-----------------|
|---------5-5-5-5-|---------5-5-5-5-|-3-3-3-3-5-5-5-5-|
|-3-3-3-3---------|-----------------|-----------------|
  1 & 2 & 3 & 4 &   1 & 2 & 3 & 4 &   1 & 2 & 3 & 4 &
			  __________
		       |2.
|------------------|-----------------|-----------------|
|-----------------*|---------3-4-5-6-|-6-5-4-3---------|
|---------5-5-5-5-*|-3-4-5-6---------|---------6-5-4-3-|
|-3-3-3-3----------|-----------------|-----------------|
  1 & 2 & 3 & 4 &    1 & 2 & 3 & 4 &   1 & 2 & 3 & 4 &
[ Tab from: http://www.guitartabs.cc/tabs/o/oasis/whatever_btab.html ]
Chorus:
|-----------|-----------|-----------|---------|-----------|
|-----------|-----------|-----------|---------|-----------|
|-----------|-----------|-3-------3-|---------|-----------|
|-0-------0-|-5-------5-|-----------|-3---3-2-|-0-------0-|
  1 2 3 4 &   1 2 3 4 &   1 2 3 4 &   1 2 3 4   1 2 3 4 &

|-----------|-----------|-------------|
|-----------|-----------|-------------|
|-----------|-3-------3-|-5---5-5-5-5-|
|-5-------5-|-----------|-------------|
  1 2 3 4 &   1 2 3 4 &   1 2 3 & 4 &

'Here In My Mind' bit:
|-----------------|-----------------|
|-----------------|-----------------|
|-2-2-2-2-2-2-2-2-|-----------------| (x3)
|-----------------|-3-3-3-3-3-3-3-3-|
  1 & 2 & 3 & 4 &   1 & 2 & 3 & 4 &

|-----------------|-----------------|
|-----------------|-----------------|
|-2-2-2-2-2-2-2-2-|-----------------|
|-----------------|-2-2-2-2-2-2-2-2-|
  1 & 2 & 3 & 4 &   1 & 2 & 3 & 4 &

|----------|-------|-------|
|----------|-------|-------|
|----------|-------|-------|(I'm not sure about rhythm but it's 
|-0--3-5-0-|-3-5-0-|-3-5-0-|syncronised with his singing)
       
Submitted by:  Johari Taylor (viking@powerup.com.au)

Comments