Oasis - Turn Up The Sun Chords & Tabs

 

Turn Up The Sun Chords & Tabs

Oasis Chords & Tabs

Version: 3 Type: Tab 0 ratings
1 star 2 stars 3 stars 4 stars 5 stars
comments

Turn Up The Sun Tab

   

Oasis
Turn Up The Sun (Andy Bell)

Capo 2nd fret

Chords used:

    Am Dsus2 G Gm  F Fmaj7 Dm Em   E E7   C  C/B
e|---0---0---3--3--1---0---1---0---0--0---0---0---| 
B|---1---3---3--3--1---1---3---0---0--0---1---1---| 
G|---2---2---0--3--2---2---2---0---1--1---0---0---| 
D|---2---0---0--5--3---3---0---2---2--0---2---0---| 
A|---0---X---2--5--3---3---X---2---2--2---3---2---| 
E|---X---X---3--3--1---X---X---0---0--0---X---X---|



intro: Am G Gm F Dm Em Fmaj7 E7-E
e|------------------------------------------------------------------------| 
B|--1--0-----1-0--------------------------------------------------------0-| 
G|-------2------2-0---3--2--0---3-2-0----2--0----2-0------------0-2--1-2--| 
D|-----------------------------------3---------3----4-2-0---2-3-----------|
A|------------------------------------------------------------------------|
E|------------------------------------------------------------------------|


Am
I carry madness everywhere I go. Over the border and back to the snow
Dsus2
So if you see me and I look right through, you shouldn't take it as a reflection on you

Fmaj7                  Dsus2             C  C/B    
Come on, turn up the sun. Turn it up for everyone

Am              
Love one another, love one another
Am                                      
The boys in the bubble they wanna be free. They got so blind that they cannot see
Dsus2
But I'm not your keeper I don't have a key. I got a piano, I can't find the 'C'

Fmaj7                  Dsus2             C  C/B    
Come on, turn up the sun. Turn it up for everyone
[ Tab from: http://www.guitartabs.cc/tabs/o/oasis/turn_up_the_sun_tab_ver_3.html ]
Am              
Love one another, love one another

Fmaj7                  Dsus2             C  C/B    
Come on, turn up the sun. Turn it up for everyone

Am              
Love one another, love one another



outro: Am G Gm F Dm Em Fmaj7 E7-E Am
       
e|----------0-1-0------------------------0----------------| 
B|--1-0-1--3-----3-1-3-1-0--1---0-1-0-1-3-3-1-0-1-0-------| 
G|-------------------------2-----------------------2-0----| 
D|--------------------------------------------------------|
A|--------------------------------------------------------|
E|--------------------------------------------------------|

e|--------------------------------------------------------| 
B|---------3-4-3--------------------------3---------------| 
G|--3-2-3-5-----5-3-5-3-2--0-3---2-3-2-3-5-5-3-2-3-2--0---| 
D|-----------------------------------------------------3--|
A|--------------------------------------------------------|
E|--------------------------------------------------------|
                                                   Am
e|--------------------------------------------------0-----| 
B|---3--------3-3-------------------------0---1-----1-----| 
G|--2-2--5-3-2-2--0----------0-2---1---2------------2-----| 
D|-----------------4-2-0--2-3-----------------------2-----|
A|--------------------------------------------------0-----|
E|--------------------------------------------------------|


to imitate the bass while playing Am and Dsus2 play this:
      |--0-------0-0-----|    |--0-------0-0-----|
      |--1-------1-1-----|    |--3-------3-3-----|
      |--2-------0-0-----|    |--2-------0-0-----|
      |--2-------0-0-----|    |--0-------0-0-----|
      |--0-------0-0-----|    |--X-------0-0-----|
      |--0-------2-3-----|    |--X-------2-3-----|    
  
Comments