Oasis - Turn Up The Sun Chords & Tabs

 

Turn Up The Sun Chords & Tabs

Oasis Chords & Tabs

Version: 1 Type: Bass Tab 1 rating
1 star 2 stars 3 stars 4 stars 5 stars
comments

Turn Up The Sun Bass Tab

Oasis.
Turn Up The Sun 
Don't Believe The Truth 
Track 1

Tabbed By Christopher Calland

Im not to sure about the / 12-14 \ bit but i think the rest is spot one

/ slide up
\ slide down
* dont strike
p pull off
h hammer on 


intro

|---------------------------|
|---------------------------|
|---------------------------|X1
|-/-12-14-\-2-3-3-2-/-5-\-2-|
                      *   *
|-----------------------------------------------|
|-----------------------------------------------|
|--2-2-2-2-2-2-2-2-/-14-14-14-14-14-14-14-14-\--| X2
|-----------------------------------------------|

Verse 1

|-----------------------|
|-----------------------|
|--2-2-2-2-2-2-0p2-0h2--|X3
|-----------------------|

|-----------------------|
|--------------------2--|
|--2-2-2-2-2-2-0p2-0----|
|-----------------------|

Verse 2

|-----------------------|
|--2-2-2-2-2-2-0p2p0h2--|
|-----------------------|
|-----------------------|

|-----------------------||-----------------------|
|--2-2-2-2-2-2-0p2-0h2--||--2-2-2-2-2-2-0p2-0----|
|-----------------------||--------------------2--|
|-----------------------||-----------------------|

|-----------------------||-----------------------|
|-----------------------||-----------------------|
|--2-2-2-2-2-2-0p2-0h2--||--2-2-2-2-2-2-0p2-0----|
|-----------------------||--------------------3--|

chorus 1

|---------------------------------|
|---------------------------------|
|------------------------5-5-4-4--|
|-3-3-3-3-3-3-3-0-0-0-0-----------|

|-----------------------|
|-----------------------|
|--2-2-2-2-2-2-0p2-0h2--|X2
|-----------------------|

Verse 3

|-----------------------|
|-----------------------|
|--2-2-2-2-2-2-0p2-0h2--|X3
|-----------------------|

|-----------------------|
|--------------------2--|
|--2-2-2-2-2-2-0p2-0----|
|-----------------------|

Verse 4

|-----------------------|
|--2-2-2-2-2-2-0p2p0h2--|
|-----------------------|
|-----------------------|
[ Tab from: http://www.guitartabs.cc/tabs/o/oasis/turn_up_the_sun_btab.html ]
|-----------------------||-----------------------|
|--2-2-2-2-2-2-0p2-0h2--||--2-2-2-2-2-2-0p2-0----|
|-----------------------||--------------------2--|
|-----------------------||-----------------------|

|-----------------------||-----------------------|
|-----------------------||-----------------------|
|--2-2-2-2-2-2-0p2-0h2--||--2-2-2-2-2-2-0p2-0----|
|-----------------------||--------------------3--|

chorus 2

|---------------------------------|
|---------------------------------|
|------------------------5-5-4-4--|
|-3-3-3-3-3-3-3-0-0-0-0-----------|

|-----------------------||-----------------------|
|-----------------------||-----------------------|
|--2-2-2-2-2-2-0p2-0h2--||--2-2-2-2-2-2-0p2-0----|
|-----------------------||--------------------3--|

chorus 3

|---------------------------------|
|---------------------------------|
|------------------------5-5-4-4--|
|-3-3-3-3-3-3-3-0-0-0-0-----------|

|-----------------------|
|-----------------------|
|--2-2-2-2-2-2-0p2-0h2--|X2
|-----------------------|

OUTRO

|-----------------|
|-----------------|
|-----------------|
|-7-7-7-7-7-7-7-7-|

|-----------------|
|-----------------|
|-----------------|
|-5-5-5-5-5-5-5-5-|

|-------------------------|
|-------------------------|
|-------------------------|
|-17-17-17-17-17-17-17-17-|

|-------------------------|
|-------------------------|
|-------------------------|
|-15-15-15-15-15-15-15-15-|

|---------------------------|
|---------------------------|
|---------------------------|
|-\-12-14-\-2-3-3-2-/-5-\-7-|
                      *   *
|-----------|
|-----------|
|-----------|
|-7-7-7-7-/-|

|-------------|
|-------------|
|-------------|
|-19-19-19-19-|

|-------------------------|
|-------------------------|
|-------------------------|x2
|-17-17-17-17-17-17-17-17-|

|-------------------------|
|-------------------------|
|-------------------------|
|-15-15-15-15-15-15-15-15-|

|---------------------------|
|---------------------------|
|---------------------------|
|-\-12-14-\-2-3-3-2-/-5-\-7-|
                      *   *
|-------------|
|-------------|
|-2----/---14-| End 
|-------------|

____________________________________________________________________
Comments