Oasis - The Masterplan Chords & Tabs

 

The Masterplan Chords & Tabs

Oasis Chords & Tabs

Version: 1 Type: Bass Tab 0 ratings
1 star 2 stars 3 stars 4 stars 5 stars
comments

The Masterplan Bass Tab

The Masterplan by Oasis, Bass Tab
Submitted By Simon Wright
[ Tab from: http://www.guitartabs.cc/tabs/o/oasis/the_masterplan_btab.html ]
Intro/Outro
G----------------------------------------------------
D-----------------------------------------------------
A------------------------------5---------5------7--
E----555444333222111------------------------x2
Verses
G-------------------------------------------------
D--------------------------------------------------
A------------7-5-----3 3 3 3-----7-7-7-7----
E---5555 5 551--------------------------------
Bridge
G----------------------------------------------
D------------------------------------------------
A-33---------------------3-3--------3 3------
E----335-53311333333-5-3313 3
Chorus
G------------------------------------------
D-------------------------------------------
A--------------------------7----------------
E--5----5555--1-3-5----5--------------

The rhythm is eay to figure out
as the bass is quite predominant
in the song
Any questions/corrections
email me at
simonewright@aol.com

Comments