Oasis - The Importance Of Being Idle Chords & Tabs

 

The Importance Of Being Idle Chords & Tabs

Oasis Chords & Tabs

Version: 2 Type: Tab 0 ratings
1 star 2 stars 3 stars 4 stars 5 stars
comments

The Importance Of Being Idle Tab

The Importance Of Being Idle Tab
Tabbed by: Bob Cheel

Before we begin, this song is absolutely amazing. The end

Intro
E--5--x--5-5-5-5--x--4--x--|
B--7--x--7-7-7-7--x--6--x--|
G--7--x--7-7-7-7--x--6--x--|
D--5--x--5-5-5-5--x--4--x--|
A--5--x--5-5-5-5--x--4--x--|
E--5--x--5-5-5-5--x--4--x--|
x3, then one of these:

E--5--x--4--x--5--|
B--7--x--6--x--7--|
G--7--x--6--x--7--|
D--5--x--4--x--5--|
A--5--x--4--x--5--|
E--5--x--4--x--5--|

Then Am like this:
E-0---0-0-0---0-0-0---0-0--|
B-1---1-1-1---1-1-1---1-1--|
G-2---2-2-2---2-2-2---2-2--|
D-2---2-2-2---2-2-2---2-2--|
A-0---0-0-0---0-0-0---0-0--|
E-x---x-x-x---x-x-x---x-x--|

Then the verses go like this:
I sold my soul for the second time...
E--0---0-0-0---0-0-0---0-0-0---0-0-0---0-0-0---0-0-0---0-0-0---0-0-|
B--1---1-1-1---1-1-1---1-1-1---1-1-1---1-1-1---1-1-0---0-0-0---0-0-|
G--2---2-2-2---2-2-2---2-2-2---2-2-0---0-0-0---0-0-1---1-1-1---1-1-|
D--2---2-2-2---2-2-3---3-3-3---3-3-2---2-2-2---2-2-2---2-2-2---2-2-|
A--0---0-0-0---0-0-x---x-x-x---x-x-3---3-3-3---3-3-2---2-2-2---2-2-|
E--x---x-x-x---x-x-x---x-x-x---x-x-x---x-x-x---x-x-0---0-0-0---0-0-| x4

Chorus:
I don't mind...
E--0--0--0--0--0--0--0--0--|
B--1--1--1--1--0--0--0--0--|
G--2--2--2--2--0--0--0--0--|
D--2--2--2--2--2--2--2--2--|
A--0--0--0--0--2--2--2--2--|
E--x--x--x--x--0--0--0--0--| x3

Give me a minute...
E--0--0--0--0--0--0--0--0--3--3--3--3--0--0--0--0--0--0--0--0--|
B--0--0--0--0--0--0--0--0--3--3--3--3--0--0--0--0--0--0--0--0--|
G--1--1--1--1--1--1--1--1--4--4--4--4--1--1--1--1--1--1--1--1--|
D--2--2--2--2--2--2--2--2--5--5--5--5--2--2--2--2--2--2--2--2--|
A--2--2--2--2--2--2--2--2--5--5--5--5--2--2--2--2--2--2--2--2--|
E--0--0--0--0--0--0--0--0--3--3--3--3--0--0--0--0--0--0--0--0--|

Bit before the solo:
E----------------------|
B------5-4-3-2-1-0-----|
G-2-2--------------3-2-|
D----------------------|
A----------------------|
E----------------------|

Solo:
E----------------------------------------------------------------------|
B----------------------------------------------------------------------|
G---------------------5-4-----------------------------------------5-4--|
D-------------------------7-5------5-7-5-------------------------------|
A------5-7-5------------------7-----------6-7------5-7-5---------------|
E--5-5-------8---5-5---------------------------5-5-------8---5-5-------|

------------------------------------------------------------------------|
--------------------------------------------------------7---------------|
--------------------8^-8^-6---------8^-8^-6----------8^---8p6-------7---|
7-5------5-7-5--------------9-6-9------------9-6-9------------9-6-9-----|
---7-----------6-7----------------------------------------------------6-|
------------------------------------------------------------------------|
[ Tab from: http://www.guitartabs.cc/tabs/o/oasis/the_importance_of_being_idle_tab_ver_2.html ]
--------------------------------------------|
-------------------7------------------------|
8^-8^-6---------8^---8p6-------8^-(7^)------|
--------9-6-9------------9-6-----------(5)--|
-----------------------------9--------------| The notes in brackets are
--------------------------------------------| actually chords (D & G)

Chorus:
I don't mind...
E--0--0--0--0--0--0--0--0--|
B--1--1--1--1--0--0--0--0--|
G--2--2--2--2--0--0--0--0--|
D--2--2--2--2--2--2--2--2--|
A--0--0--0--0--2--2--2--2--|
E--x--x--x--x--0--0--0--0--| x3

Give me a minute...
E--0--0--0--0--0--0--0--0--3--3--3--3--0--0--0--0--0--0--0--0--|
B--0--0--0--0--0--0--0--0--3--3--3--3--0--0--0--0--0--0--0--0--|
G--1--1--1--1--1--1--1--1--4--4--4--4--1--1--1--1--1--1--1--1--|
D--2--2--2--2--2--2--2--2--5--5--5--5--2--2--2--2--2--2--2--2--|
A--2--2--2--2--2--2--2--2--5--5--5--5--2--2--2--2--2--2--2--2--|
E--0--0--0--0--0--0--0--0--3--3--3--3--0--0--0--0--0--0--0--0--|

Gem carries on with the E while Noel plays this bit again
E----------------------|
B------5-4-3-2-1-0-----|
G-2-2--------------3-2-|
D----------------------|
A----------------------|
E----------------------|

Then the intro again
E--5--x--5-5-5-5--x--4--x--|
B--7--x--7-7-7-7--x--6--x--|
G--7--x--7-7-7-7--x--6--x--|
D--5--x--5-5-5-5--x--4--x--|
A--5--x--5-5-5-5--x--4--x--|
E--5--x--5-5-5-5--x--4--x--|
x3 then

E--5--x--4--x--5--|
B--7--x--6--x--7--|
G--7--x--6--x--7--|
D--5--x--4--x--5--|
A--5--x--4--x--5--|
E--5--x--4--x--5--|

Then another verse:
I lost my faith in the summer time...
E--0---0-0-0---0-0-0---0-0-0---0-0-0---0-0-0---0-0-0---0-0-0---0-0-|
B--1---1-1-1---1-1-1---1-1-1---1-1-1---1-1-1---1-1-0---0-0-0---0-0-|
G--2---2-2-2---2-2-2---2-2-2---2-2-0---0-0-0---0-0-1---1-1-1---1-1-|
D--2---2-2-2---2-2-3---3-3-3---3-3-2---2-2-2---2-2-2---2-2-2---2-2-|
A--0---0-0-0---0-0-x---x-x-x---x-x-3---3-3-3---3-3-2---2-2-2---2-2-|
E--x---x-x-x---x-x-x---x-x-x---x-x-x---x-x-x---x-x-0---0-0-0---0-0-| x4

Chorus again:
I don't mind...
E--0--0--0--0--0--0--0--0--|
B--1--1--1--1--0--0--0--0--|
G--2--2--2--2--0--0--0--0--|
D--2--2--2--2--2--2--2--2--|
A--0--0--0--0--2--2--2--2--|
E--x--x--x--x--0--0--0--0--| x3

Give me a minute...
E--0--0--0--0--0--0--0--0--3--3--3--3--0--0--0--0--0--0--0--0--|
B--0--0--0--0--0--0--0--0--3--3--3--3--0--0--0--0--0--0--0--0--|
G--1--1--1--1--1--1--1--1--4--4--4--4--1--1--1--1--1--1--1--1--|
D--2--2--2--2--2--2--2--2--5--5--5--5--2--2--2--2--2--2--2--2--|
A--2--2--2--2--2--2--2--2--5--5--5--5--2--2--2--2--2--2--2--2--|
E--0--0--0--0--0--0--0--0--3--3--3--3--0--0--0--0--0--0--0--0--|

Gem plays an E while Noel plays this again
E----------------------|
B------5-4-3-2-1-0-----|
G-2-2--------------3-2-|
D----------------------|
A----------------------|
E----------------------|

Then the intro again
E--5--x--5-5-5-5--x--4--x--|
B--7--x--7-7-7-7--x--6--x--|
G--7--x--7-7-7-7--x--6--x--|
D--5--x--5-5-5-5--x--4--x--|
A--5--x--5-5-5-5--x--4--x--|
E--5--x--5-5-5-5--x--4--x--|
x3 then

E--5--x--4--x--5--|
B--7--x--6--x--7--|
G--7--x--6--x--7--|
D--5--x--4--x--5--|
A--5--x--4--x--5--|
E--5--x--4--x--5--|

There. That tab took me two hours to do, so enjoy it while it lasts. email me with any 
or critiques: panelface_bob@hotmail.com
Comments