Oasis - The Hindu Times Chords & Tabs

 

The Hindu Times Chords & Tabs

Oasis Chords & Tabs

Version: 4 Type: Tab

The Hindu Times Tab

   
Intro riff:

        B               B                B             E            B
E--------------------------------------------------------------------|
B--------------------------------------------------------------------|
G------8h9-8-------8-9-9b(10)--8-------8h9-8--------8-9-9b(10)--8----|
D-------------------------------------9------------------------------|
A--------------------------------------------------------------------|
E--------------------------------------------------------------------|

Verse :


B
i get up when i'm down
B                      E
i can't swim where the sun goes down
B
cos i believe in my freind
B                        E
and i'll scream when i'm walkin away

Chorus:
E
cos god gave me a soul
                B
for my rock n' roll man
E
cos god gave me a soul
                B
for my rock n' roll man
      F#            E                  B
I can get so high i just can't feel it
      F#            E                  D
I can get so high i just can't feel it

Bridge (or whatever):
D             E
cos your the faith
                   G
running through my veins
          A
you're my sunshine
          B
you're my rain

       B               B                B             E            B
E---------------------------------------------------------------------|
B---------------------------------------------------------------------|
G------8h9-8-------8-9-9b(10)--8-------8h9-8--------8-9-9b(10)--8-----|
D---------------------------------------------------------------------|
A---------------------------------------------------------------------|
E---------------------------------------------------------------------|

2nd Verse:

B
i get up when i'm down
B                      E
i can't see where the sun goes down
B
cos i believe in my freind
B                        E
and i'll scream when i'm walkin away

2nd Chorus:
E
cos god gave me a soul
                B
for my rock n' roll man
E
god gave me a soul
                B
for my rock n' roll man
      F#            E                  B
I can get so high i just can't feel it
      F#            E                  D
I can get so high i just can't feel it

2nd Bridge:
D             E
cos your the faith
                   G
running through my veins
          A
you're my sunshine
          B
you're my rain

solo bit:
       B               B                B            B             E
E----------------------------------------------------------------------|
B----------------------------------------------------------------------|
G------8h9-8-------8-9-9b(10)--8-------8h9-8--------8-9-9b(10)--8------|
D-----------------9-------------------9------------9-------------------|
A----------------------------------------------------------------------|
E----------------------------------------------------------------------|


     E                    E                 B                B
E----------------------------------------------------------------------------------|
B----------------------------------------------------------------------------------|
G---13h14-13---------13-14-14b(15)--13------8h9-8-------8-9-9b(10)--8--------------|
D------------------14----------------------------------9---------------------------|
A----------------------------------------------------------------------------------|
E----------------------------------------------------------------------------------|

     E                    E                 B
E----------------------------------------------------------------------------------|
B----------------------------------------------------------------------------------|
G---13h14-13---------13-14-14b(15)--13------8h9-8-------8-9-9b(10)--8--------------|
D------------------14----------------------------------9---------------------------|
A----------------------------------------------------------------------------------|
E----------------------------------------------------------------------------------|


straight back to here:

      F#            E                  B
I can get so high i just can't feel it
      F#            E                  D
I can get so high i just can't feel it

3rd Bridge:
D             E
cos your the faith
                   G
running through my veins
          A
you're my sunshine
          B
you're my rain

Final Intro riff:
[ Tab from: http://www.guitartabs.cc/tabs/o/oasis/the_hindu_times_tab_ver_4.html ]
        B               B                B             B           B
E--------------------------------------------------------------------|
B--------------------------------------------------------------------|
G------8h9-8-------8-9-9b(10)--8-------8h9-8--------8-9-9b(10)--8----|
D--------------------------------------------------9-----------------|
A--------------------------------------------------------------------|
E--------------------------------------------------------------------|


        B               B                B             B           B
E--------------------------------------------------------------------|
B--------------------------------------------------------------------|
G------8h9-8-------8-9-9b(10)--8-------8h9-8--------8-9-9b(10)--8----|
D-----9-----------9---------------------------------9----------------|
A--------------------------------------------------------------------|
E--------------------------------------------------------------------|


end on A B


---------------------------------------------------------
*********************************************************

Version 2
tabbed by: António Neves da Silva (nevesa@oninet.pt)

Chords in parentheses represent chord names with respect to capoed guitar 2nd fret
Chords above represent actual sounding chords


  B  A5  Esus2   E   F#  G  Csus2
 (A)(G5)(Dsus2) (D) (E) (F)(Absus2)
e-x--3----0------2---0---x---1-|
B-2--3----3------3---0---1---1-|
G-2--0----2------2---2---2---3-|
D-2--0----0------0---2---3---3-|
A-0--x----x------x---1---3---1-|
E-x--3----x------x---0---x---x-|

b = bend (6b7 means bend the string at the 6th fret to make the note the
string would make if played at the 7th fret with no bend, i.e. a 1/2 bend)
r = release bend
h = hammer on
p = pull off
~ = make the note vibrate
u = upstroke
D = downstroke
s = legato slide(gliss)(strike only the first note and then slide the same
fret-hand finger up or down to the second note)


Guitar 1 - acoustic, strummed for rhythm
Guitar 2 - electric w/slight overdrive, strummed along with the acoustic
Guitar 3 - electric w/ overdrive used for leads (riffs and fills), and maybe
the feedback on the verses holding a B note or A relative to capo


Note:(all guitars can be capoed behind the 2nd fret)


 Fill (play it pretty fast)
e----------------------------|
B-----------------------8----|
G---------6h7-7b9r7-7s9------|
D----------------------------|
A----------------------------|
E----------------------------|

Start (effects & drum loop)
Intro


A A A G5 (Played w/ gtrs. 1+2, gtr.1 tacet)
(struming pattern something like udddud,itīs easy to get right but hard to tab)

then

  A                   A                A           G (all gtrs.)
  <     Riff 1      > <    Riff 2    > < Riff 3  > < Riff4 >
e--------------------|----------------|------------|3333333|
B--------------------|----------------|------------|3333333|
G---------6h7-6~-----|---6h7-7b9r7-6~-|-----6h7-6~-|0000000|
D-----7-7-------7-7~-|-7--------------|-7-7--------|0000000|
A--------------------|----------------|------------|xxxxxxx|
E--------------------|----------------|------------|3333333|
                                                    udddudu
Verse
      A             A            A            G     (gtrs.1+2)
I get up when Iīm down, I canīt swin but my soul wonīt drown!
I do believe, Iīve got flare, I got speed and I walk on air!

Pre-chorus (play 2 times)
D5                     D5(Fill)    A (Riff 1) A (Riff 2)
Coz God give me soul in your RockīnīRoll babe!

Chorus
    E               D  (Fill)       A(Riff 1) A (Riff 1)
And I get so high I just canīt feel it!
    E               D  (Fill)
And I get so high I just canīt feel it!

F              G5                    Absus2
In and out my brain running through my vein
           D5
youīre my sunshine youīre my
A   (Riff 1) A (Riff 2) A(Riff 3) G(Riff 4)
rain!

Verse

Thereīs a light that shine on, shines on me and it keeps me warm.
It gives me peace, I must say, I canīt sleep coz the world wonīt wait!

Pre-chorus

Chorus

Instrumental (play 2 times the whole thing)
     D                        D
e---------------------------|----------------------|
B---------------------------|----------------------|
G-----------11h12-11~-------|---11h12-12b14r12-11~-|
D-----12-12----------12-12~-|-12-------------------|
A---------------------------|----------------------|
E---------------------------|----------------------|

  A                   A
  <     Riff 1      > <    Riff 2    >
e--------------------|----------------|
B--------------------|----------------|
G---------6h7-6~-----|---6h7-7b9r7-6~-|
D-----7-7-------7-7~-|-7--------------|
A--------------------|----------------|
E--------------------|----------------|

Chorus (1st phrase, 2 times)
    E               D  (Fill 1)     A(Riff 1) A (Riff 1)
And I get so high I just canīt feel it!

Chorus (in his whole)

then

A   (Riff 1) A (Riff 2) A(Riff 3) G(Riff 4)

end on A