Oasis - The Girl In The Dirty Shirt Chords & Tabs

 

The Girl In The Dirty Shirt Chords & Tabs

Oasis Chords & Tabs

Version: 1 Type: Tab 0 ratings
1 star 2 stars 3 stars 4 stars 5 stars
comments

The Girl In The Dirty Shirt Tab

   
#----------------------------------PLEASE NOTE---------------------------------#
#This file is the author's own work and represents their interpretation of the #
#song. You may only use this file for private study, scholarship, or research. #
#------------------------------------------------------------------------------#
#

Date: Wed, 14 Jan 1998 14:58:07 -0500 (EST)
From: Fred Lidskog 
Subject: TAB: The Girl In The Dirty Shirt   by Oasis

"The Girl In The Dirty Shirt"
Performed by Oasis
>From the album "Be Here Now" on
Music by: N. Gallagher
Lyrics by: N. Gallagher
(c)1997 
-------------
Tabbed by Fred Lidskog 

Chords used:

 EADGBe
Em(022000)
G(3x0033)
G2(355433)
C2(x35553)
C9(x3233x)
Cadd9(x32030)
D(xx0232)
B7(x24242) NOTE: another guitar plays B7sus4 (x21200) at the same
   time
Am(x02210)
Em(022000)

Tab Key:

h = hammer on
p = pull off
b = bend (7b8 means bend the string at the 7th fret to make approximately
   the note the string would make if played at the 8th fret with no bend)
r = release bend
s = slide (a quick slide)
\ = a slower or delayed slide (sounds like two separate notes with a slide
between them)
~ = hold note
> = slide down an unspecified amount

Fills:

 Fill #1 (this fill is played by
 a second guitar during every "Cadd9"
 chord in the song):
  Cadd9 
e--0-----------0------------0--------
B-----3---3--------3---3--------3----
G-----------0------------0-----------
D------------------------------------
A------------------------------------
E------------------------------------

Intro
=====

EmGC9EmGC9
EmGC9GDCadd9

Verse 1
=======
   Em       G C9
_______________________
G      D     Cadd9
_______________________
    Em       G C9
_______________________
    G     D    Cadd9
_______________________

Verse 2
=======


Pre-Chorus
==========
D     B7     Em       D       Cadd9
___________________________________
    e------------10~~--
    B----10~bbb12------
    G------------------
    D------------------
    A------------------
    E------------------
D B7           Em         D       Cadd9
______________________________________
      e----------10~~--
      B--10~bbb12------
      G----------------
      D----------------
      A----------------
      E----------------
      Em D       Cadd9
_______________________

    e------------10~~--
    B----10~bbb12------
    G------------------
    D------------------
    A------------------
     E------------------

   B7
What I'm trying to say...
e---------------------------------------------------------------------------
B---------------------------------------------------------------------------
G------------------7h8------------------7--7h8------------------------------
D----------------------9--7--9------7h9--------9--7--9--9>------------------
A-------------------------------7h9-----------------------------------------
E---------------------------------------------------------------------------

Chorus
======
     G2     C2         G2              C2
Is would you maybe_______________________

e------------------------10>--------------------------10>-------------------
B-------------------10b12-----------------------10b12-----------------------
G---------------------------------------------------------------------------
D---------------------------------------------------------------------------
A---------------------------------------------------------------------------
E---------------------------------------------------------------------------

        G2  C2     Am     C2
____________________________

e-------------------------------10>-----------------------------------------
B-------------------------10b12---------------------------------------------
G------------------------------------------12----12-14-14b15.5r14-12--12----
D------------------------------------12h14----14----------------------------
A---------------------------------------------------------------------------
E---------------------------------------------------------------------------

         G2      C2          G2               C2
________________________________________________

e--------------------------10>--------------------------10>-----------------
B---------------------10b12------------------------10b12--------------------
G---------------------------------------------------------------------------
D---------------------------------------------------------------------------
A---------------------------------------------------------------------------
E---------------------------------------------------------------------------

       G2     C2
_______________________________________

e---------------------------------10>--
B----------------------------10b12-----
G--------------------------------------
D--------------------------------------
A--------------------------------------
E--------------------------------------

    Am       C2
_______________________________________

e---------------------------------------------------------------------------
B---------------------------------------------------------------------------
G---------12----12-14-14b15.5r14-12-12--------------------------------------
D---12h14----14-------------------------------------------------------------
A---------------------------------------------------------------------------
E---------------------------------------------------------------------------

  Am
______________________________________________


e---------------------------------------------
B---------------------------------------------
G-------12----12-14-14b15.5~~~~r14p12---------
D-12h14----14-------------------------14~~~---
A---------------------------------------------
E---------------------------------------------
[ Tab from: http://www.guitartabs.cc/tabs/o/oasis/the_girl_in_the_dirty_shirt_tab.html ]
  EmGC9    Em  G   C9
e-----------------------------------------------------------------------
B--------------------5------------------------------5-------------------
G----------------------3b3.5--------------------------3b3.5-------------
D-----------------------------5------------------------------5----------
A--------------------------------5--5h7-------------------------5--5h7--
E-----------------------------------------------------------------------

  Em    G       C9      G     D    Cadd9
e---------------------------------------------------------------------------
B--------------------5-------5----------------------------------------------
G----------------------3b3.5---3b3.5----------------------------------------
D-------------------------------------5-------------------------------------
A---------------------------------------------------------------------------
E---------------------------------------------------------------------------

Verse 3
=======
Em    G    C9
____________________

e-------------------
B---5-------5-------
G-----3b3.5---3b3.5-
D-------------------
A-------------------
E-------------------

  G  D       Cadd9EmG
  
e---------------------------------------------------------------------------
B--------------------------------5------------------------------------------
G----------------------------------3b3.5------------------------------------
D-5---------------------------------------5---------------------------------
A--------------------------------------------5--5h7-------------------------
E---------------------------------------------------------------------------

       C9       G   D     Cadd9

e---------------------------------------------------------------------------
B-------------5-------5-----------------------------------------------------
G---------------3b3.5---3b3.5-----------------------------------------------
D------------------------------5--------------------------------------------
A---------------------------------------------------------------------------
E---------------------------------------------------------------------------

Pre-chorus (chords and fills exactly the same as first pre-chorus)
=========

What I'm trying to say....

Chorus (chords and fills same as first chorus until end of 2nd time through)
======

    Am       C2
_______________

e---------------------------------------------------------------------------
B---------------------------------------------------------------------------
G---------12----12-14-14b15.5r14-12-12--------------------------------------
D---12h14----14-------------------------------------------------------------
A---------------------------------------------------------------------------
E---------------------------------------------------------------------------

    Am       C2
_______________

e--------------------------------------
B--------------------------------------
G---------12----12-14-14b15.5r14-12-12-
D---12h14----14------------------------
A--------------------------------------
E--------------------------------------
  
      G2    C2              G2          C2G2
___________________________________________

e---------------------------------------------------------------------------
B-------------------------------13--------------------------13--------------
G--14-12--14b15.5---------12h14-----12----------------12h14-----12--14b15.5-
D-------------------12h14---------------14>-----12h14-----------------------
A---------------------------------------------------------------------------
E---------------------------------------------------------------------------

  C2    Am       C2
___________________
  
e---------------------------------------------
B---------------------------------------------
G-------------12----12--14-14b15.5r14--12--12-
D-------12h14----14---------------------------
A---------------------------------------------
E---------------------------------------------

      G2    C2              G2          C2G2
_____________________________________________

e---------------------------------------------------------------------------
B-------------------------------13--------------------------13--------------
G--14-12--14b15.5---------12h14-----12----------------12h14-----12--14b15.5-
D-------------------12h14---------------14>-----12h14-----------------------
A---------------------------------------------------------------------------
E---------------------------------------------------------------------------

  C2    Am       C2
____________________
  
e------------------------------------------------
B----------------------------------15------------
G-------------12----12--14-14b15.5---b15.5r14-12-
D-------12h14----14------------------------------
A------------------------------------------------
E------------------------------------------------

      G2    C2              G2          C2G2
_____________________________________________

e---------------------------------------------------------------------------
B-------------------------------13--------------------------13--------------
G--14-12--14b15.5---------12h14-----12----------------12h14-----12--14b15.5-
D-------------------12h14---------------14>-----12h14-----------------------
A---------------------------------------------------------------------------
E---------------------------------------------------------------------------

  C2    Am       C2
_________________________________________________
  
e------------------------------------------------
B------------------------------------------------
G-------------12----12--14-14b15.5~~~~~~~~~~~r14-
D-------12h14----14------------------------------
A------------------------------------------------
E------------------------------------------------

   GC9GC9GC9GC9
________________________________________________

e-----
B-----
G--12-
D-----
A-----
E-----


G             C9


*for a little variation, try throwing in this little fill the organ plays
with your guitar in one of the sections marked with a "*"
e---------------------------
B-------------13--11h12-----
G-------12h14-----12----12>-
D-12h14---------------------
A---------------------------
E---------------------------

Questions, comments, corrections, requests to swede@email.unc.edu
Comments