Oasis - Thank You For The Good Times Chords & Tabs

 

Thank You For The Good Times Chords & Tabs

Oasis Chords & Tabs

Version: 1 Type: Bass Tab 0 ratings
1 star 2 stars 3 stars 4 stars 5 stars
comments

Thank You For The Good Times Bass Tab

   
Oasis - Thank You For The Good Times

D	xx0232
G	320033
G/F#	220033
Em7	022033
A	x02220
Bm	x24430

D
Who will rise
            G       G/F#     Em7
It'll be so nice to hear you sing
	          A
Thank you for the good times
           G               D 
Before the good times fly away

D
Your eyes are turning lies
        G        G/F#   Em7
So much storm is on the way
            A
But it's so nice
                  	     G   D
But don't let the good times fly away

  Em7       G/F#  G    		 Bm
I drink to every circus standing here
      Em7      G/F#  G              Bm   
Amoung the few have tried cheat the years
	Em7    G/F# G                Bm      
There's always one of us whose blown away
     Em7           G/F# G                A         
I'll scratch a star for breath along the way(?)


Who will rise
It'll be so nice to hear you sing
Thank you for the good times
Before the good times fly away
[ Tab from: http://www.guitartabs.cc/tabs/o/oasis/thank_you_for_the_good_times_btab.html ]
e-------------------------------------------------------------------------
B--------------------------------------------------10------10------10-10--
G--------------------------7~-7~---7-9-7~~--9-9s11----9s11----9s11--------
D-4-5-7-7-5-7-9-7~-----7-9-------9----------------------------------------
A-------------------10----------------------------------------------------
E-------------------------------------------------------------------------

e-------------------------------------------------------------------------
B-10b12r10-7--------------------------------------------------------------
G------------9-7-7---7-9-7~~----------------------------------------------
D------------------9------------------------------------------------------
A-------------------------------------------------------------------------
E-------------------------------------------------------------------------


I drink to every circus standing here
Amoung the few have tried cheat the years
There's always one of us whose blown away
Our stars are strapped for cash along the way(?)


Who will rise
It'll be so nice to hear you sing
Thank you for the good times
Before the good times fly away

Thank you for the good times
Before the good times fly away

Thank you for the good times
Before the good times fly away

Thank you for the good times
Before the good times fly 
Away

e--------------------------------------------------------------------------
B--------------------------------------------------------------------------
G-7-6-4-2-----------7------------------------------------------------------
D-0-0-0-0-4-4b5r4-2-0------------------------------------------------------ repeat many times...
A--------------------------------------------------------------------------
E--------------------------------------------------------------------------

Comments