Oasis - Supersonic Chords & Tabs

 

Supersonic Chords & Tabs

Oasis Chords & Tabs

Version: 8 Type: Tab 0 ratings
1 star 2 stars 3 stars 4 stars 5 stars
comments

Supersonic Tab

   
Chords Used

F#-2442xx
F#/E-0442xx
A-x02220
B-x244xx
E-022100
D-xx0232
C#7-x46464

Intro Riff

e----------0--------------
b------------0------------
g--------2-----0---2------
d------4---------4-2-1----
a--2h4---------------2---- Play 3x
e-------------------------

On the 4th bar play this

e----------0----------------
b------------0--------------
g--------2-----0---2--------
d------4---------4-2--------
a--2h4---------------0-2b3-0
e---------------------------

Verse
         
          F#         A  B   
I need to be myself
          F#           A  B 
I can't be no-one else
   
same kinda rythem and chords for rest of verse.
[ Tab from: http://www.guitartabs.cc/tabs/o/oasis/supersonic_tab_ver_8.html ]
Pre- Chorus
           E
You need to find out cos no ones gonna tell yer
         F#   F#/E F#  F#/E
what im on about
             E
You need to find a way for what you wanna say
C#7
    But before tomorrow

all bridges played with same chords

Chorus
    D         A         E       F#
Coz my friend said he'd take yer home

chorus chords same for all bars and all chorus's. play chords x4

solo

e-----------------------------------------------------------------------
b--------------------------------------------17-------------------------
g--16b18-16-14-16----------14----16b18-16-14----16b18-14-----14h16----14
d-----------------16-14-16-------------------------------14h16---14h16--
a-----------------------------------------------------------------------
e-----------------------------------------------------------------------
                                                      x2

solo is played each chorus and after the last chorus the solo continues till the
end of the song. Dont know exactly how the solo goes for the end of the song but
i usually jst improvise with the above riff.enjoy:)

email any comments to me at>rodneyuplonker@hotmail.com
Comments