Oasis - Supersonic Chords & Tabs

 

Supersonic Chords & Tabs

Oasis Chords & Tabs

Version: 1 Type: Bass Tab 0 ratings
1 star 2 stars 3 stars 4 stars 5 stars
comments

Supersonic Bass Tab

Artist : Oasis
Title  : Supersonic

Tabbed by Chris Bryson ( christheexcellent@yahoo.co.uk )

This tabs for bass, the timings may not be exact but 
heres my effort which appears to be perfect.

Intro / Verse

G----------------------------------------------------
D----------------------------------------------------
A---------------------------------------2---2---2----
E---2---2---0---2---2---0---5---5---5---------------0

   "I need to be myself... "

Pre-Chorus

G----------------------------------------------------
D----------------------------------------------------
A----------------------------------------------------
E---0---0---0---0---0---0---2---2---2---2---2---2---2

   "...find a way..."
[ Tab from: http://www.guitartabs.cc/tabs/o/oasis/supersonic_btab.html ]
G----------------------------------------------------
D----------------------------------------------------
A---4---4---4---4---4---4---4---4---4---4---4---4---4
E----------------------------------------------------

   "... but before tomorrow..."

Chorus

G----------------------------------------------------
D----------------------------------------------------
A---5---5---5---0---0--------------------------------
E-----------------------0---0---0---0---2---2--------

Post-Chorus

G----------------------------------------------------
D----------------------------------------------------
A--------------------------4*------------------------
E---0*-----------------------------------------------

   "Ah..."                 "..ahh..."


* = Let Ring


Order of play:

Verse      - 8 Times
Pre-Chorus
Chorus     - 8 Times
Post-Chorus
Verse      - 8 Times
Pre-Chorus
Chorus     - (Repeat til end)

Note again that timings are not exact, look at where the notes are
fretted and played then figure out timings yourself (Verse timings
should be ok)

Email me if you have anything to say.
Comments