Oasis - Sunday Morning Call Solo Chords & Tabs

 

Sunday Morning Call Solo Chords & Tabs

Oasis Chords & Tabs

Version: 1 Type: Tab 0 ratings
1 star 2 stars 3 stars 4 stars 5 stars
comments

Sunday Morning Call Solo Tab

   


                               "Sunday Morning Call"
                                       Oasis

[ Tab from: http://www.guitartabs.cc/tabs/o/oasis/sunday_morning_call_solo_tab.html ]
    Bb5   F5         G5    F5           G5          Bb5    C5      Bb5    C5
-|-----------------------------------------------------------------------------------------|-
-|--5b6---5b6--r5--3---------------------------------6--------------6----------------------|-
-|--5b7---5b7--r5--3---------------3----3b4----0-5b7---5b7r5----5h7---5b7r5----------------|-
-|--------------------5-------3h5----5------5----------------------------------------------|-
-|------------------------3h5--------------------------------------------------------------|-
-|-----------------------------------------------------------------------------------------|-

    Bb5   F5        G5    F5            G5                Bb5    C5      Bb5    C5
-|-----------------------------------------------------------------------------------------|-
-|--5b6---5b6--r5--3---------------------------------------6--------------6----------------|-
-|--5b7---5b7--r5--3---------------3----3b4----------0-5b7---5b7r5----5h7---5b7r5---5-4-5--|-
-|--------------------5-------3h5----5------5--3-5-----------------------------------------|-
-|------------------------3h5--------------------------------------------------------------|-
-|-----------------------------------------------------------------------------------------|-
Comments