Oasis - Sunday Morning Call Chords & Tabs

 

Sunday Morning Call Chords & Tabs

Oasis Chords & Tabs

Version: 1 Type: Bass Tab 0 ratings
1 star 2 stars 3 stars 4 stars 5 stars
comments

Sunday Morning Call Bass Tab

Song: "Sunday Morning Call"
by OASIS
written by: Noel Gallagher
from the album: "Standing on the Shoulder of Giants"
tabbed by: Guido Comparato 
 
 Wonderful song...
 
 Chorus ("And in your head, do you feel...")
G|--------------------------------------------------|
D|--------------------------------------------------|
A|--------------5--5--5-5---7--7--7-7---3--3--3-3---|
E|--3--3--3-3---------------------------------------|
 
G|--------------------------------------------------|
D|--------------------------3--3--3-3---2--2--------|
A|--------------5--5--5-5---------------------5--5--|
E|--3--3--3-3---------------------------------------|
 
G|--------------------------------------------------|
D|--------------------------------------------------|
A|--------------5--5--5-5---7--7--7-7---3--3--3-3---|
E|--3--3--3-3---------------------------------------|  (x2)
 
 "But it's OK..."
G|--------------------|
D|--------------------|
A|--5--5-3--3-2--2-3--|
E|--------------------| (x2)
 
 Verse ("When you're lonely and you start to hear...")
G|-------------------------|      |-----|
D|-------------------------|      |-----|
A|--1--1--1-1---5--5--5-5--|      |--5--|
E|-------------------------| (x4) |-----| "At what price?..."
 
 Solo Guitar Part
G|------------------------------------------|
D|------------------------------------------|
A|-----------------1-1--3-3--1-1--3-3--3-3--|
E|--3-3--1-1--3-3---------------------------| (x2)
 
G|----------------------------------|
D|----------------------------------|
A|--5--5-5--5--5-5---3-3--5-5--3-3--|
E|----------------------------------|
 
 Last Chorus
G|--------------------------------------------------|
D|--------------------------------------------------|
A|--------------5--5--5-5---7--7--7-7---3--3--3-3---|
E|--3--3--3-3---------------------------------------|
 
G|--------------------------------------------------|
D|--------------------------3--3--3-3---2--2--------|
A|--------------5--5--5-5---------------------5--5--|
E|--3--3--3-3---------------------------------------|
 
G|--------------------------------------------------|
D|--------------------------------------------------|
A|--------------5--5--5-5---7--7--7-7---3--3--3-3---|
E|--3--3--3-3---------------------------------------| 
                           
                           "if it ever ever ever..."
G|--------------------------------------------------|
D|--------------------------3--3--3-3---------------|
A|--------------5--5--5-5---------------3--3--3-3---|
E|--3--3--3-3---------------------------------------| repeat
 

 Oasis' Magic Pie Italia - http://listen.to/magicpie


[ Tab from: http://www.guitartabs.cc/tabs/o/oasis/sunday_morning_call_btab.html ]
Comments