Oasis - Shout It Out Loud Chords & Tabs

 

Shout It Out Loud Chords & Tabs

Oasis Chords & Tabs

Version: 1 Type: Tab 0 ratings
1 star 2 stars 3 stars 4 stars 5 stars
comments

Shout It Out Loud Tab

e--10-12----10-10/12/10-------------10------------------------}
b--------12-----------------8--10/12---12/10-8----------------}
g-----------------------7-9--------------------9--------------}
d-------------------------------------------------------------}
a-------------------------------------------------------------}
e-------------------------------------------------0-3-3/4/3-0-}

e--12/14/10/12----------------10------------------}
b--------------12-----8-10/12----12/10--8-7-------}
g-----------------7-9-----------------------------}
d-------------------------------------------------}
a-------------------------------------------------}
e-------------------------------------------------}

That's it.

Any questions  marcdacosta7@yahoo.com
[ Tab from: http://www.guitartabs.cc/tabs/o/oasis/shout_it_out_loud_tab.html ]
Comments