Oasis - Shes Electric Chords & Tabs

 

Shes Electric Chords & Tabs

Oasis Chords & Tabs

Version: 3 Type: Bass Tab

Shes Electric Bass Tab

   
|--------------------------|
| Oasis  -  She's Electric |
|--------------------------|

Tabbed By :You-Fat-So
E-mail:simbbada@gmail.com
Tuning:Normal(G D A E)

:Intro:
G||----------------------|----------------------|----------------------|
D||----------------------|----------------------|----------------------|
A||----------------------|----------------------|----------------------|
E||--2----2----2----2----|--2----2----2----2----|--2----2----2----2----|

G||----------------------|
D||----------------------|
A||----------------------|
E||--2----2----2----1----|

:Verse:
G||----------------------|----------------------|----------------------|
D||----------------------|----------------------|----------------------|
A||----------------------|--4----4----0----0----|----------------------|
E||--0----0----4----4----|----------------------|--0----0----4----4----|
                                                                  
G||----------------------|----------------------|----------------------|
D||----------------------|----------------------|----------------------|
A||--4----4----0----0----|----------------------|--4----4----0----0----|
E||----------------------|--0----0----4----4----|----------------------|
                                                                   
G||----------------------|----------------------|
D||----------------------|----------------------|
A||--3----3----5----5----|--7----7----7----7----| Repeat this verse 2
E||----------------------|----------------------| times

:Verse 2:
G||----------------------|----------------------|----------------------|
D||----------------------|----------------------|----------------------|
A||----------------------|----------------------|----------------------|
E||--5----5----5----5----|--5----5----5----5----|--5----5----5----5----|
                                                                         
G||----------------------|-------------------------|---------------------|
D||----------------------|-------------------------|---------------------|
A||----------------------|----------------------4--|---4--4----4----4----|
E||--5----5----5----5----|--5----5----5----5-------|---------------------|
                                                          
G||-------------------------|-------------------------------|
D||-------------------------|--------9----------------------|
A||--7----7----7----7----9/-|--11-------11----9------7------|
E||-------------------------|-------------------------------|

G||----------------------|----------------------|----------------------|
D||----------------------|----------------------|----------------------|
A||----------------------|----------------------|----------------------|
E||--5----5----5----5----|--5----5----5----5----|--5----5----5----5----|
                                                                         
G||----------------------|-------------------------|---------------------|
D||----------------------|-------------------------|---------------------|
A||----------------------|----------------------4--|---4--4----4----4----|
E||--5----5----5----5----|--5----5----5----5-------|---------------------|

|==                        ==|
| G||----------------------| |
| D||----------------------| | 
| A||--7----7----7----7----| | =x4
| E||----------------------| |
|==                        ==|

|==                        ==|
| G||----------------------| |
| D||----------------------| | 
| A||--9----9----9----9----| | =x2
| E||----------------------| |
|==                        ==|

|==                        ==|
| G||----------------------| |
| D||----------------------| | 
| A||--7----7----7----7----| | =x2
| E||----------------------| |
|==                        ==|
[ Tab from: http://www.guitartabs.cc/tabs/o/oasis/shes_electric_btab_ver_3.html ]
:Bridge:
G||----------------------|----------------------|----------------------|
D||----------------------|----------------------|----------------------|
A||----------------------|--4----4----0----0----|----------------------|
E||--0----0----4----4----|----------------------|--0----0----4----4----|
                                                                  
G||----------------------|----------------------|----------------------|
D||----------------------|----------------------|----------------------|
A||--4----4----0----0----|----------------------|--4----4----0----0----|
E||----------------------|--0----0----4----4----|----------------------|
                                                                   
G||----------------------|----------------------|
D||----------------------|----------------------|
A||--3----3----5----5----|--7----7----7----7----| 
E||----------------------|----------------------|

:Verse 3: X2
G||----------------------|----------------------|----------------------|
D||----------------------|----------------------|----------------------|
A||----------------------|--4----4----0----0----|----------------------|
E||--0----0----4----4----|----------------------|--0----0----4----4----|
                                                                  
G||----------------------|----------------------|----------------------|
D||----------------------|----------------------|----------------------|
A||--4----4----0----0----|----------------------|--4----4----0----0----|
E||----------------------|--0----0----4----4----|----------------------|
                                                                   
G||----------------------|----------------------|
D||----------------------|----------------------|
A||--3----3----5----5----|--7----7----7----7----| X2
E||----------------------|----------------------|

:Verse 4:
G||----------------------|----------------------|----------------------|
D||----------------------|----------------------|----------------------|
A||----------------------|----------------------|----------------------|
E||--5----5----5----5----|--5----5----5----5----|--5----5----5----5----|
                                                                         
G||----------------------|-------------------------|---------------------|
D||----------------------|-------------------------|---------------------|
A||----------------------|----------------------4--|---4--4----4----4----|
E||--5----5----5----5----|--5----5----5----5-------|---------------------|
                                                          
G||-------------------------|-------------------------------|
D||-------------------------|--------9----------------------|
A||--7----7----7----7----9/-|--11-------11----9------7------|
E||-------------------------|-------------------------------|
G||----------------------|----------------------|----------------------|
D||----------------------|----------------------|----------------------|
A||----------------------|----------------------|----------------------|
E||--5----5----5----5----|--5----5----5----5----|--5----5----5----5----|
                                                                         
G||----------------------|-------------------------|---------------------|
D||----------------------|-------------------------|---------------------|
A||----------------------|----------------------4--|---4--4----4----4----|
E||--5----5----5----5----|--5----5----5----5-------|---------------------|

|==                        ==|
| G||----------------------| |
| D||----------------------| | 
| A||--7----7----7----7----| | =x4
| E||----------------------| |
|==                        ==|

|==                        ==|
| G||----------------------| |
| D||----------------------| | 
| A||--9----9----9----9----| | =x2
| E||----------------------| |
|==                        ==|

|==                        ==|
| G||----------------------| |
| D||----------------------| | 
| A||--7----7----7----7----| | =x2
| E||----------------------| |
|==                        ==|

G||-------------------------|------------------------|
D||-------------------------|------------------------| repeat like 6
A||--3----3----5----5----7--|------7--7----7----7----| times
E||-------------------------|------------------------|

G||----------------------|----------------------|-------------------|
D||----------------------|----------------------|-------------------|
A||--3----3----3----3----|--5----5----5----5----|--7----------------|
E||----------------------|----------------------|-------------------|

END

This is the whole song,oasis - she's electric(great song!)
i think its 100% correct