Oasis - Shakermaker Chords & Tabs

 

Shakermaker Chords & Tabs

Oasis Chords & Tabs

Version: 5 Type: Tab 0 ratings
1 star 2 stars 3 stars 4 stars 5 stars
comments

Shakermaker Tab

This is the way to play shakermaker as it sounds in "definitely maybe"

I think it may sound good playing with the version in "familiar to
millions" we'll see
[ Tab from: http://www.guitartabs.cc/tabs/o/oasis/shakermaker_tab_ver_5.html ]
|--------------------------------------0----------------------------|
|-------0-----------0------------0-------0---0----------------------|
|-----2---2-------2---2--------2---2-------2---2--------------------|
|---1-------1---1-------1----1-------1------------------------------|
|-2-----------2------------2----------------------------------------|
|-------------------------------------------------------------------|

|------------------------------------------0----------2-------------|
|---------0------------0-------------0-------0---0----2-------------|
|-------7---7--------7---7---------2---2-------1---1--3-------------|
|---6---------6---6--------------1-------1------------4-------------|
|-2/--7---------7----------7/2-2----------------------4-------------|
|-----------------------------------------------------2-------------|

It's mine:

Godo Monge - FIND

Mexico City
Comments