Oasis - Shakermaker Chords & Tabs

 

Shakermaker Chords & Tabs

Oasis Chords & Tabs

Version: 3 Type: Tab 0 ratings
1 star 2 stars 3 stars 4 stars 5 stars
comments

Shakermaker Tab

   
Author/Artist: Oasis
Title: Shakermaker
Album: Definitely Maybe
Transcribed by: Stuart McLellan
Email: stuartmclellan86@hotmail.com

This is the solo which is quite easy but i have missed it. What you hear
in the background is the riff from the beginning with a slight variation
when it comes to A, so maybe some of the notes are played by the other guitar.

!t in the tab means fret the string with your left hand but do not pick
the string with your right hand!

-|----------------------------------------------------------------------------
-|----------------------------------------------------------------------------
-|----4---------4-------4---------4------4---------4------4-------------------
-|5/7---t7----------5/7---t7---------5/7---t7---------5/7---t7----------------
-|---------5-----------------5----------------5----------------5--------------
-|------------7-----------------7----------------7---------------7-7\0----0-0-
  B                 B                B                B                E      
[ Tab from: http://www.guitartabs.cc/tabs/o/oasis/shakermaker_tab_ver_3.html ]
-|----------------------------------------------------------------------------
-|----------------------------------------------------------------------------
-|----------------------------------4---------4-------4---------4------4------
-|----------2---------------2---5/7---t7----------5/7---t7---------5/7---t7---
-|2-5---2-5--------2-5--2-5--------------5-----------------5----------------5-
-|-------------0-0--------------------------7-----------------7---------------
               E                B                 B                A          

-|----------------------------------------------------------------------------
-|----------------------------------------------------------------------------
-|---------4-6-6--4-------4------4---6-4--6b7r6-6b7r6-4-----------------------
-|-----4/6------------4h6----4h6----------------------------------------------
-|----------------------------------------------------------------------------
-|7-7-------------------------------------------------------------------------
       E              B                   F#
Comments