Oasis - Roll With It Chords & Tabs

 

Roll With It Chords & Tabs

Oasis Chords & Tabs

Version: 2 Type: Tab 0 ratings
1 star 2 stars 3 stars 4 stars 5 stars
comments

Roll With It Tab

   
Every website i enter i can never find the solo piece to roll with it
So i decided to try and learn it by myself. and it worked.  Here is my
version of the solo piece played by Noel.

Im not interested in giving you the chords to the rest of the song. so
i wont insert them.just play these normally:-

Chorus

Verse

It then goes onto the chorus again, but Liam doesnt sing it all, he
only sings :-

YOU GOTTA ROLL WITH IT, YOU GOTTA TAKE YOUR TIME, YOU GOTTA SAY
WHAT YOU SAY DONT LET ANYBODY GET IN YOUR WAY CAUSE ITS ALL TOO MUCH
FOR ME TO TAKE.......then the solo

e ------------------------------------------------------------------|
B ------------------------------------------------------------------|
G ------------------------------------------------------------------|
D --9^^--10-10-9-7-5^^^--5-7-5^^-5-7-9-10-9-7-5-5--5-7-9-7-5--------|
A ------------------------------------------------------------------|
E ------------------------------------------------------------------|
[ Tab from: http://www.guitartabs.cc/tabs/o/oasis/roll_with_it_tab_ver_2.html ]
e ------------------------------------------------------------------|
B -----------------------------10bbb-8-11b-11-----------------------|
G ------------------------9-11--------------------------------------|
D -10-10-9-7-5-5---7-9-11-------------------------------------------|
A ------------------------------------------------------------------|
E ------------------------------------------------------------------|

   ^= let ring
   b= bend

After this, it then leads on to the rest of the song. so enjoy.

I know this looks very confusing. but try listening to the LIVE
version of the song. preferably "familliar to millions". you will
find that it almost sounds exact. i took a small piece from their
lateset concert...10 years of noise and confusion. but i just threw
it in there. if u listen  carefully you will know what part it is.

Dont forget to try it when u r listening to the LIVE  version. the
version on "Whats the story morning glory" album is hopeless.

If you have any comments or suggestions on this tab, please feel
free to mail me at

        dj_mar2@hotmail.com

 c ya...enjoy it
Comments