Oasis - Rock N Roll Star Chords & Tabs

 

Rock N Roll Star Chords & Tabs

Oasis Chords & Tabs

Version: 1 Type: Tab 0 ratings
1 star 2 stars 3 stars 4 stars 5 stars
comments

Rock N Roll Star Tab

1|--------------------------------------------------------------------|
2|--------------------------------------------------------------------|        
3|---9-8-9------------8---9-8-9-----11-14--9---8---9--9-8--8----8-9-8-|         
4|--------9---7---9-------------9--------------------------9----------| x2
5|--------------------------------------------------------------------|        
6|--------------------------------------------------------------------|

1|----------------------|
2|----------------------|
3|---9-8-9------------8-|
4|--------9---7---9-----|
5|----------------------|
6|----------------------|
[ Tab from: http://www.guitartabs.cc/tabs/o/oasis/rock_n_roll_star_tab.html ]
Comments