Oasis - My Big Mouth Chords & Tabs

 

My Big Mouth Chords & Tabs

Oasis Chords & Tabs

Version: 1 Type: Bass Tab 0 ratings
1 star 2 stars 3 stars 4 stars 5 stars
comments

My Big Mouth Bass Tab

   
Oasis - My Big Mouth
(Noel Gallagher)

tabbed by Meelis Saard (m_saard@hotmail.com)
Here we go.


Inro
G|-----------------|				G|----------------------|
D|-----------------|				D|----------------------|
A|-0-0-0-0-0-0-0-0-|				A|----5-3---------------|
E|-----------------| repeat many times, then	E|-3------3--3-3-1--1-1-| x4

Verse

G|----------------------------------------------------------------
D|----------------------------------------------------------------
A|----5-3-------------------5-3-----------------5-3---------------
E|-3------3--3-3-1--1-1-3-3-----3--3-3-1--1113------3--3-3-1--1-1-
[ Tab from: http://www.guitartabs.cc/tabs/o/oasis/my_big_mouth_btab.html ]
G----------------------------------------------------------------
D----------------------------------------------------------------
A----5-3-----------------5-3-------------------5-3---------------
E-3------3--3-3-1--1103------3--3-3-1--1-1-3-3-----3--3-3-1--111-

G----------------------------------------|
D----------------------------------------|
A----5-3-------------------5-3-----------|
E-3------3--3-3-1--1-1--3------3-3333-33-|


Pre-Chorus

G|-------------------------------------------
D|-------------------------------------------
A|------------------------------5-8--5-------
E|-1-1-0--1--0-1-11-11-3-33-333--------5-3-1-

G----------------------------------|
D----------------------------------|
A----------------------------------|
E-1-11-1111-11-111-0-00-003-333-33-|


Chorus (same as Verse)
Verse
Pre-Chorus
Chorus
Pre-Chorus
Bridge (same as Verse)
Chorus x2
End (same as Verse & Chorus)

So, if you have any questions, comments or corrections,
please send me an e-mail
Thank you.
Comments