Oasis - Mucky Fingers Chords & Tabs

 

Mucky Fingers Chords & Tabs

Oasis Chords & Tabs

Version: 1 Type: Bass Tab 0 ratings
1 star 2 stars 3 stars 4 stars 5 stars
comments

Mucky Fingers Bass Tab

   
-------------------------------------------------------------------------------
			     Mucky Fingers - Oasis
-------------------------------------------------------------------------------

Tabbed By :Tucker
e-mail:

Tuning:Standard

Verses/intro

G|-------------------------------------------------------------------------------------|
D|---------------------------0-0-0-0---------------------------------------------------|
A|-------------------3-3-3-3-----------------------------------------------------------|
E|--3-3-3-3-3-3-3-3--------------------------------------------------------------------|

Chorus
[ Tab from: http://www.guitartabs.cc/tabs/o/oasis/mucky_fingers_btab.html ]
G|----------------------------------------------------------------------------|
D|-------------0-0-0-0-0-0-0-0------------------------------------------------|
A|3-3-3-3-3-3-3------------------------------0-0-0-0-0-0-0-0-0-0-0-0-0-0-0-0--|
E|----------------------------3-3-3-3-2-2-2-2---------------------------------|

G|-------------------------------------------------------------------------------------|
D|-0-0-0-0-0-0-0-0---------------------------------------------------------------------|
A|-------------------------------------------------------------------------------------|
E|-------------------------------------------------------------------------------------|

Outro

G|----------------------------------------------------------------|
D|------------------------0-2-0-2------------------------0-2-0-2--|
A|----------------3-3-3-3-------------------------3-3-3-3---------|
E|-3-3-3-3-3-3-3-3----------------3-3-3-3-3-3-3-3-----------------|

===============================================================================
Comments