Oasis - Morning Glory Chords & Tabs

 

Morning Glory Chords & Tabs

Oasis Chords & Tabs

Version: 1 Type: Bass Tab 2 ratings
1 star 2 stars 3 stars 4 stars 5 stars
comments

Morning Glory Bass Tab

   
Morning Glory- Oasis
(What's The Story) Morning Glory?
Tabbed on 27 February 2000

Intro

	Em			D
G-----------------------------
D-----------------------------
A--------------5--5-5-5--5-5--
E-0--0-0-2-0-0----------------	x3

Verse

	Em			D
G----------------------------
D----------------------------
A--------------5--5-5-5--5-5-
E-0--0-0-2-0-0---------------		x2

	Then...
[ Tab from: http://www.guitartabs.cc/tabs/o/oasis/morning_glory_btab.html ]
	Em			D		  Asus4       Cadd9
G--------------------------------------------------------
D--------------------------------------------------------
A--------------5--5-5-5--5-5--------------3--3-3--3-1----
E-0--0-0-2-0-0---------------5--5-5-5-5-5-------------2-1
	
Today's the day that...

Play those twice before moving on to the Pre-chorus

Pre-chorus

	Dsus2		Cadd9
G----------------------------
D----------------------------
A-5--5-5-5-5-5-3--3-3--3-3-3-
E----------------------------		x3

	Need a little time..
	

	Then...

		D					B
G----------------------------------------------------
D----------------------------------------------------
A-5--5-5-5-5-5-5--5-5-5-5-5-2--2-2-2-2-2-2--2-2-2-2-2
E----------------------------------------------------
	
Need a little time to rest your mind...
	

The last part of the verse is also the chorus.

Good luck.


Comments