Oasis - Master Plan Chords & Tabs

 

Master Plan Chords & Tabs

Oasis Chords & Tabs

Version: 2 Type: Bass Tab 0 ratings
1 star 2 stars 3 stars 4 stars 5 stars
comments

Master Plan Bass Tab

intro / outro
g---------------------------------------------------------------------|
d---------------------------------------------------------------------|
a-------------------------------5------------5-----------------7------|
e----5-5-5-4-4-4-3-3-3-2-2-2-111 all of that x2 for the outro to
   verses
g----------------------------------------------------------------------|
d----------------------------------------------------------------------|
a---------7-5-----3-3-3-3-----7-7-7-7----------------------------------|
e-555-5-551------------------------------------------------------------|
bridge
g----------------------------------------------------------------------|
d----------------------------------------------------------------------|
a--33--------------------------3-3---------------3 3-------------------|
chorus
g----------------------------------------------------------------------|
d----------------------------------------------------------------------|
a----------------------------------7-----------------------------------|
e---5----5555--1-3-5---5-----------------------------------------------|
[ Tab from: http://www.guitartabs.cc/tabs/o/oasis/master_plan_btab_ver_2.html ]
Comments