Oasis - Live Forever Chords & Tabs

 

Live Forever Chords & Tabs

Oasis Chords & Tabs

Version: 5 Type: Tab 0 ratings
1 star 2 stars 3 stars 4 stars 5 stars
comments

Live Forever Tab

Oasis
Live Forever Solo

E ------------------------------------------------------------------------------------|
B ------------------------------------------------------------------------------------|
G --10h12s15-16^^-16-14--14h16-16^^-16-14---14h16-------------------------------------|
D ---------------------14-----------------14---------14-12-12s14s12-------------------|
A --------------------------------------------------------------------14^-12-10h12p10-|
E ------------------------------------------------------------------------------------|

E ------------------------------------------------------------------------------------|
B ------------------------------------------------------------------------------------|
G -12-10h12-10s12h15-16^^-16-14----14-16----------------------------------------------|
D ------------------------------14-------14-12-12-12s14s12----------------------------|
A ----------------------------------------------------------14^-12s10-----------------|
E ------------------------------------------------------------------------------------|
[ Tab from: http://www.guitartabs.cc/tabs/o/oasis/live_forever_tab_ver_5.html ]
E -7s12^^12^^12^^12h15----------------------------------------------------------------|
B --------------------15-12-15-12---12------------------------------------------------|
G --------------------------------14--14-12---12-12h14p12-14h16^^16^^-14--------------|
D ------------------------------------------14---------------------------14-12-14-----|
A ------------------------------------------------------------------------------------|
E ------------------------------------------------------------------------------------|

E ------------------------------------------------------------------------------------|
B -----------------------------------------------------------------12-----------------|
G--------------12^-16^^16^^-14-----------------------14-----16------------------------|
D-------12h14--------------------14-12-14---------------------------------------------|
A-12h14-------------------------------------------------------------------------------|
E ------------------------------------------------------------------------------------|

E -7s12^^12^^12^^12h15----------------------------------------------------------------|
B --------------------15-12-15-12---12------------------------------------------------|
G --------------------------------14---14-12---12-12h14p12-14h16^^16^^-14-------------|
D -------------------------------------------14---------------------------14-12-14----|
A ------------------------------------------------------------------------------------|
E ------------------------------------------------------------------------------------|

E ------------------------------------------------------------------------------------|
B ------------------------------------------------------------------------------------|
G -------------14^----------------14^--------------14-16^^16^^-14---------------------|
D--------12h14------------12h14------------12h14--------------------14s12-12h14^^-----|
A-12h14-----------12h14-------------12h14---------------------------------------------|
E-------------------------------------------------------------------------------------|
Comments