Oasis - Live Forever Chords & Tabs

 

Live Forever Chords & Tabs

Oasis Chords & Tabs

Version: 2 Type: Tab 0 ratings
1 star 2 stars 3 stars 4 stars 5 stars
comments

Live Forever Tab

   
#----------------------------------PLEASE NOTE---------------------------------#
#This file is the author's own work and represents their interpretation of the #
#song. You may only use this file for private study, scholarship, or research. #
#------------------------------------------------------------------------------#
#


From swede@email.unc.edu Sun Apr 27 11:33:42 1997
Date: Wed, 2 Apr 1997 14:20:58 -0500 (EST)
From: Fred Lidskog 
To: guitar@olga.net
Subject: TAB: Live Forever (guitar solo)  by Oasis

>From Fred Lidskog 

Live Forever (guitar solo)

Tab key:

b = bend (12b14 means bend string at the 12th fret to make the note the
14th fret would play without a bend)
r = release bend
h = hammer on
p = pull off
^ = trill (a.k.a. make the note "vibrate)

          G    D   Am7        C        D
e----------------------------------------------------------------------------
B----------------------------------------------------------------------------
G--------12--14b16-14-12----12h14---14b16r14-12----12h14------12----12-------
D--12h14-----------------14---------------------14-------14---12h14-12-12----
A----------------------------------------------------------------------12h14-
E----------------------------------------------------------------------------
       G    D                     Am7       C     D
e----------------------------------------------------------------------------
B------0---------------------------------------------------------------------
G------0------------12h14--14b16r14-12----12h14-----12----12-----------------
D--12--0--s12-12h14--------------------14-------14--12h14-12-12----12--------
A--12--------------------------------------------------------12h14-12--------
E----------------------------------------------------------------------------
     Em       D   Am7
e--7s12^^^^^^-12-------------------------------------------------------------
B----------------15-12-15-12----12-------------------------------------------
G----------------------------14----14-12-14-12----12-14-12-14b16-14-12h14-12-
D----------------------------------------------14----------------------------
A----------------------------------------------------------------------------
E----------------------------------------------------------------------------
      C                    DEm      D
e----------------------------------------------------12-12^^^^^-12-----------
B---------------------------------------------s12-15---------------15-12-15--
G-----------------12-14b16-14b16-14p12----12---------------------------------
D--14-------12h14----------------------14------------------------------------
A-----12h14------------------------------------------------------------------
E----------------------------------------------------------------------------
   Am7      Fmaj7
e---------------------------------------------------------------------------
B-12----12------------------------------------------------------------------
G----14----14-12-14-12----12-14-12-14b16-14-12h14-12----------------12-12---
D----------------------14----------------------------14-------12h14---------
A-------------------------------------------------------12h14---------------
E---------------------------------------------------------------------------

e---------------------------------------------------------------------------
B---------------------------------------------------------------------------
G-------------12-12--------------12-14b16-14b16-14p12----12-----------------
D-------12h14--------------12h14----------------------14--------------------
A-12h14--------------12h14--------------------------------------------------
E---------------------------------------------------------------------------

Questions, comments, corrections, requests to swede@email.unc.edu


From swede@email.unc.edu Sun Apr 27 11:33:53 1997
Date: Wed, 2 Apr 1997 14:24:30 -0500 (EST)
From: Fred Lidskog 
To: guitar@olga.net
Subject: TAB: Live Forever  by Oasis

>From Fred Lidskog 

Live Forever, written by Noel Gallagher, performed by Oasis
Song can be found on the album "Live Forever" and was released as a CD
single.

Chords used:

 EADGBe
G(3x0033)
D(xx0232)
Am7(x02010)
C(x32010)
Em(022000)
Fmaj7(x33210)

[NOTE: I've tried like crazy to determine if the "Am7" used in this song
is really an "Am", but since the two chords are so similar sounding, I
couldn't be sure. Anyways, I'm pretty sure it's an "Am7" during most of
the song, but an "Am" at the end when Liam's singing "Gonna live forever"
over and over.]



End of the song alternates   Am   and   Fmaj7  while Liam's singing
"Gonna live forever" again and again.

I'll be sure to post the tabs for the guitar solos when I have time.

Questions, comments, corrections, requests to swede@email.unc.edu





Oasis
"Live Forever"
Transcribed by Mark ZurSchmiede (a.k.a. ZurSch)
[ Tab from: http://www.guitartabs.cc/tabs/o/oasis/live_forever_tab_ver_2.html ]
Okay, I got all of the solo in there for you, I read in a magazine
that it was played as a pentatonic scale on the 12th, and figured it out 
from there, but it sounds closer, and better when played  as a
pentatonic on the 14th so I maybe they were wrong, or maybe you have to
change your tunings.  You decide.  Also the part of the solo where Ive
indicated with *========*, I just pick all the notes in that lick, but
I don't think you are supposed to. I let you figure that part out.

   G        D     Am7     C       Em  
 _X____  XXO___ XO_O_O  X__O_O  O__OOO
 ||||||  |||||| ||||O|  ||||O|  ||||||
 |O||||  |||O|O ||O|||  ||O|||  |OO|||
 O|||OO  ||||O| ||||||  |O||||  ||||||
 ||||||  |||||| ||||||  ||||||  ||||||

RIFF:

|---------------3----------------|-------------3------------------|
|-------1-----------1------------|-----1-----------1--------------|
|----------0-----------0---------|--------0-------------0---------|
|---3----------------------------|-3------------------------------|
|--------------------------------|--------------------------------|
|--------------------------------|--------------------------------|

  

 SOLO:
                                                        ~~~~~~~
|--------------------------------|--------------------------------|
|--------------------------------|--*-----------------------------|
|-----------------------12-------|-14-(14)-12------12h14----------|
|-----------------12h14----------|-------------14-----------------|
|--------------------------------|--------------------------------|
|--------------------------------|--------------------------------|

                         ~~~~~~~
|--------------------------------|--------------------------------|
|--*-----------------------------|--------------------------------|
|-14-(14)-12------12h14----------|-12-----12----------------------|
|-------------14-------12--------|-12h14--12------12-----12--12---|
|--------------------------------|----------------12h14--12--14---|
|--------------------------------|--------------------------------|

                                                          ~~~~~~~
|--------------------------------|--------------------------------|
|--------------------------------|--*-----------------------------|
|----------------------12h14-----|-14-(14)-12------12h14----------|
|-12-----------/12--14-----------|-------------14-------12--------|
|-14h15p14-----------------------|--------------------------------|
|--------------------------------|--------------------------------|


|--------------------------------|--*hold bend################----|
|--------------------------------|-15--15-15-15-15-15-15-15-15-15-|
|-12----12----12------12---------|--------------------------------|
|-12h14-12----12h14---12---------|--------------------------------|
|--------------------------------|--------------------------------|
|--------------------------------|--------------------------------|

     *==========================*
|----12--------------------------|--------------------------------|
|---------15--12--15--12---12----|---------------------------*----|
|-----------------------14----14-|-12h14-12----12-12-14-12--14-14-|
|--------------------------------|----------14--------------------|
|--------------------------------|--------------------------------|
|--------------------------------|--------------------------------|

|--------------------------------|--------------------------------|
|--------------------------------|--*---*-------------------12--15|
|-12h14-12--------------------12-|-14--14--14p12-----12--14-------|
|----------14----------12h14-----|---------------14---------------|
|---------------12h14------------|--------------------------------|
|--------------------------------|--------------------------------|

|--*hold bend################----|----12--------------------------|
|-15--15-15-15-15-15-15-15-15-15-|---------15--12--15--12---12----|
|--------------------------------|-----------------------14----14-|
|--------------------------------|--------------------------------|
|--------------------------------|--------------------------------|
|--------------------------------|--------------------------------|

|--------------------------------|--------------------------------|
|------------------------------*-|--------------------------------|
|-12h14-12----12-12-14-12--14-14-|-12h14-12------------------12---|
|----------14--------------------|----------14---------12h14------|
|--------------------------------|---------------12h14------------|
|--------------------------------|--------------------------------|
~~~~
|--------------------------------|---------------------------------------|
|--------------------------------|---------------------*---*-------------|
|-------------12---------------12|----------------12--14--14--41p12----12|
|-------12h14------------12h14---|----------12h14-------------------14---|
|-12h14------------12h14---------|----12h14------------------------------|
|--------------------------------|---------------------------------------|



  

|~~~~~~~~~~~~~~~~~~~~~~~~~~|
|KEY:   |
|*   = Full Bend note      |
|~~~ = Vibrato             |
|/   = Slide up to note    |
|\   = slide down to note  |
|( ) = release note        |
|p, h= pull off, hammer on |
 ~~~~~~~~~~~~~~~~~~~~~~~~~~ 
Comments