Oasis - Live Forever Chords & Tabs

 

Live Forever Chords & Tabs

Oasis Chords & Tabs

Version: 4 Type: Bass Tab 0 ratings
1 star 2 stars 3 stars 4 stars 5 stars
comments

Live Forever Bass Tab

   
----------------------------------------------------------------------------
			    Live forever - Oasis
----------------------------------------------------------------------------

Tabbed By : Anfo
e-mail: sessionalschizophrenic@hotmail.com

Tuning:Standard (EADG)

When the bass enters (last bar of the intro and 4th after the guitar solo) there's a
small fill into the next bar

Fill
G|----------------|
D|14--12----------|
A|--------14--12--|
E|----------------|
[ Tab from: http://www.guitartabs.cc/tabs/o/oasis/live_forever_btab_ver_4.html ]
Verse
G|----------------|----------------|----------------|----------------|
D|----------------|----------------|----------------|----------------|
A|----------------|5---5---5-5-5-5-|----------------|3---3-3-5---5-5-|
E|3---3---3-3-3-3-|----------------|5---5---5-5-5-5-|----------------|

Chorus
G|----------------|----------------|----------------|----------------|
D|----------------|----------------|----------------|----------------|
A|----------------|5---5---5-5-5-5-|----------------|3---3-3-5---5-5-|
E|0---0---0-0-0-0-|----------------|5---5---5-5-5-5-|----------------|

Repeat but at the last bar play this instead

Replacement bar
G|----------------|
D|----------------|
A|----------------|
E|1-1-1-0-1-1-1-0-|

Outro
G|----------------|----------------|
D|----------------|----------------|
A|----------------|----------------|
E|1-1-1-0-1-1-1-0-|5-5-5-5-5-5-5-5-|
Just Repeat this over and over again
Comments