Oasis - Little By Little Chords & Tabs

 

Little By Little Chords & Tabs

Oasis Chords & Tabs

Version: 2 Type: Tab 0 ratings
1 star 2 stars 3 stars 4 stars 5 stars
comments

Little By Little Tab

   
Oasis - Little by Little
---------------------

    C   G   Em  A   D  D/F#
E | 0 | 3 | 0 | 0 | 2 | 2 |  |   |   |   |
B | 1 | 3 | 0 | 2 | 3 | 3 |  |   |   |   |
G | 0 | 0 | 0 | 2 | 2 | 2 |  |   |   |   |
D | 2 | 0 | 2 | 2 | 0 | 0 |  |   |   |   |
A | 3 | 2 | 2 | 0 | X | 0 |  |   |   |   |
E | X | 3 | 0 | X | X | 2 |  |   |   |   |

C, G, Em...  A... Em...  A...

Em                           A
We the people fight for our existence,
     Em                                 A
We don't claim to be perfect but we're free.
     Em                               A
We dream our dreams alone with no resistance,
Em                               A
Fading like the stars we wish to be.


                   D
You know I didn't mean,
                G    D/F#  Em
What I just said,
                                             A
But my god woke up on the wrong side of his bed;
                                     G
And it just don't matter now.


                     D             A                                    Em        D/F#    G
'cause Little by little - we gave you everything you've ever dreamed of,
            D            A                                  Em     D/F#    G
Little by little - the wheels of your life they're slowly falling off...
            D             A                   Em      D/F#    G
Little by little - you have to give it all with all your life,
             D          C             G                   A
And all the time, I just ask myself why you're really here.


Em                          A                                   (played over the A chord)
True perfection has to be imperfect,                            E----------0---|
  Em                                     A                      B------2/3-----|
I know that that sounds foolish but it's true.                  G----2---------|
      Em                                A                       D--2-----------|
The day has come and now you'll have to accept                  A--------------|
      Em                             A                          E--------------|
The life inside your head we give to you...

                        D
You know I didn't mean,
                G    D/F# Em
What I just said
                                             A
But my god woke up on the wrong side of his bed
                                     G
And it just don't matter now.

[ Tab from: http://www.guitartabs.cc/tabs/o/oasis/little_by_little_tab_ver_2.html ]
                     D             A                     Em   D/F#    G
'cause Little by little - we gave you everything you've ever dreamed of,
            D            A                          Em     D/F#    G
Little by little - the wheels of your life they're slowly falling off...
            D             A             Em      D/F#     G
Little by little - you have to give it all with all your life,
               D              C             G         A
And all the time, I just ask myself why you're really here.


 A, A, G, D;    D, D, A, G;    D, D, A, A...
(Instrumental)

   A                                 G     D  A                               G     D
E-------------------------------------------------------------------------------------|
B-------------------------------------------------------------------------------------|
G----------6-7b9r7-6----------------------------------6-7b9r7-6-----------------------|
D--7--7--7-----------7-7-5h7-7-7-x-x-7-x-x-5--7--7--7-----------7-7-5h7-7-x-x-7-x-x-5-|
A--------------------------------x-x-7-x-x-5------------------------------x-x-7-x-x-5-|
E-------------------------------------------------------------------------------------|
  D                                             A         G    D                             A
E------------------------------------------------------------------------------------------------------------------------|
B------------------------------------------------------------------------------------------------------------------------|
G---------11-12B14R12-11------------------------------------------------11-12b14r12-11-------14-14-14-14-14-14-14b16r14--|
D-7/12-12----------------12-12-10H12-12-12-x-x-12-12-x-x-10-10-12-12-12----------------12-12-----------------------------|
A------------------------------------------x-x-12-12-x-x-10-10-----------------------------------------------------------|
E------------------------------------------------------------------------------------------------------------------------|


G
            D             A                                    Em        Em9    G
Little by little - we gave you everything you've ever dreamed of,
            D            A                                  Em     Em9    G
Little by little - the wheels of your life they're slowly falling off...
            D             A                   Em   Em9     G
Little by little - you have to give it all in all your life,
               D             A               Em                  G       D   A
And all the time, I just ask myself why you're really here;

      		     G    D    A
Why am I really here?
 	             G    D    A      G      D
why am I really here?


E-------------------------------------------------|
B----------------------------------15-15-15\------|
G-11-12--14\--11-12--14\--11-12-14----------------|
D-------------------------------------------------|      PLAY 3 TIMES
A-------------------------------------------------|
E-------------------------------------------------|

E-----------------------------------------------------------------------------|
B----------------------------------15-17b19r17-15----15-17-15~~~~----------15-|
G-11-12--14\--11-12--14\--11-12-14----------------14----------14\12~~~~~14----|
D-----------------------------------------------------------------------------|   repeat ad lib etc...
A-----------------------------------------------------------------------------|
E-----------------------------------------------------------------------------|
Comments