Oasis - Little By Little Chords & Tabs

 

Little By Little Chords & Tabs

Oasis Chords & Tabs

Version: 1 Type: Bass Tab 1 rating
1 star 2 stars 3 stars 4 stars 5 stars
comments

Little By Little Bass Tab

Date: Sun, 7 JUL 2003 19:26:29 +0000
From: Chris C & Mark S 
Album: Heathen Chemistry
Song: little By Little: Track6
Written By: Noel Gallagher 
Tabbed By: Chris Calland & Mark Smith

This Is Our First Bass Tab and We Are Pretty Proud
Of It. Its 100% Accurate And Sounds The Dog's Bollocks
Oasis Are Gods.

INTRO
G|-----------------|----------------||
D|-----------------|----------------||
A|-3-3-3-3---------|---------7------||
E|----------3-3-3-3|----------------||

Verse
G|-----------------|-----------------|-----------------|-----------------||
D|-----------------|-----------------|-----------------|-----------------||
A|---0----7----0---|---7----0----7---|---0----7----0---|---7----0--------||
E|-----------------|-----------------|-----------------|-----------------||

Bridge
G|-----------------|-----------------|-----------------|-----------------||
D|-----------------|-5-------5--5----|-----------------|-7--7---7-7-7-7--||
A|--5------5-----9-|---------------9-|--7---7---7---7--|-----------------||
E|-----------------|-----------------|-----------------|-----------------||

Chorus
G|-----------------|-----------------|-----------------|-----------------||
D|--5------5---5---|-----------------|--7------7---7---|-----------------||X
A|-----------------|--5------5---5---|-----------------|--7--7----9--9---||3
E|-----------------|-----------------|-----------------|-----------------||

G|-----------------|-----------------|--5------5---5---|--4------4---4---||
D|--5------5---5---|-----------------|-----------------|-----------------||
A|-----------------|--5------5---5---|-----------------|-----------------||
E|-----------------|-----------------|-----------------|-----------------||

G|-----------------||
D|--7--------------||
A|-----------------||
E|-----------------||

Verse
G|-----------------|------------------|-----------------|-----------------------||
D|-----------------|---7--11s12--13-13|-----------------|-13s12-12s11--7p5-7-7--||
A|--------7--------|-7----------------|--------7--------|-----------------------||
E|-----------------|------------------|-----------------|-----------------------||

G|-----------------|------------------|-----------------|
D|-----------------|---7--11s12--13-13|-----------------|
A|--------7--------|-7----------------|----7-------0----|
E|-----------------|------------------|-----------------|
[ Tab from: http://www.guitartabs.cc/tabs/o/oasis/little_by_little_btab.html ]
Bridge
G|-----------------|-----------------|-----------------|-----------------||
D|-----------------|-5-------5--5----|-----------------|-7--7---7-7-7-7--||
A|--5------5-----9-|---------------9-|--7---7---7---7--|-----------------||
E|-----------------|-----------------|-----------------|-----------------||

Chorus
G|-----------------|-----------------|-----------------|-----------------||
D|--5------5---5---|-----------------|--7------7---7---|-----------------||X
A|-----------------|--5------5---5---|-----------------|--7--7----9--9---||3
E|-----------------|-----------------|-----------------|-----------------||

G|-----------------|-----------------|--5------5---5---|--4------4---4---||
D|--5------5---5---|-----------------|-----------------|-----------------||
A|-----------------|--5------5---5---|-----------------|-----------------||
E|-----------------|-----------------|-----------------|-----------------||

Solo 2:30
G|-----------------|-----------------|-----------------|-----------------||
D|--7----7-7----7--|--7----7-7----7--|--7----7-7----7--|--5-5------------||X
A|-----------------|-----------------|-----------------|----------5--5---||2
E|-----------------|-----------------|-----------------|-----------------||

G|-----------------|-----------------|-----------------|-----------------|
D|-----------------|-----------------|-----------------|---7--7----5--5--|
A|--5----5-5----5--|--5----5-5----5--|--5----5-5----5--|-----------------|
E|-----------------|-----------------|-----------------|-----------------|

G|-----------------|-----------------|-----------------||
D|-----------------|-----------------|--7--7---7--7--7-||
A|--5----5-5----5--|--5----5-5----5--|-----------------||
E|-----------------|-----------------|-----------------||

Chorus
G|-----------------|-----------------|-----------------|-----------------||
D|--5------5---5---|-----------------|--7------7---7---|-----------------||X
A|-----------------|--5------5---5---|-----------------|--7--7----9--9---||4
E|-----------------|-----------------|-----------------|-----------------||

SOLO 2 3:25
G|-----------------|-----------------|------------------|-----------------|-----------------||
D|-----------------|--------12h14p12-|--12-12-12h14p12--|-----------------|-----------------||X
A|--10-------10----|-12h14-----------|------------------|---14--p--12-12--|--7--7----9--9---||4
E|-----------------|-----------------|------------------|-----------------|-----------------||
                                                                          (     3x only     ) 
G|-----------------|                                    
D|-----------------|
A|--------5s--7s-5-|
E|hold-------------|
 (    4th Time     )

Outro
G|-----------------|-----------------||
D|-----------------|-----------------||Repeat Till Fade....
A|--5---s------17--|-17-----s------5-||
E|-----------------|-----------------||
Comments