Oasis - Just Getting Older Chords & Tabs

 

Just Getting Older Chords & Tabs

Oasis Chords & Tabs

Version: 1 Type: Tab 0 ratings
1 star 2 stars 3 stars 4 stars 5 stars
comments

Just Getting Older Tab

   
OASIS : JUST GETTING OLDER

From the album "Heathen Chemistry" and the single "The Hindu Times".
Lyrics by: Noel Gallagher

Tabbed by Peter Reilly 

Chords used:

A      (002220)
Amaj7  (002120)
A7     (002020)
D      (000232)
Dm     (000231)
E      (022100)
A*     (577655)
D*     (557775)
Dm*    (557765)
E*     (779987)
Bm     (224432)
C#m    (466544)




Intro
A    A7    D    Dm    A    E    D    A

Verse
A
It's nine o'clock
A7
I'm getting tired
D
I'm sick of all my records
         Dm                    A
And the clothes I've bought today
              E
Am I cracking up?
                D    A
Or just getting older?

Verse
A
I'm staying in
A7
I can't be bothered
D
Making conversation
           Dm                 A
With the friends that I don't know
              E
Am I cracking up?
                D   A 
Or just getting older?
[ Tab from: http://www.guitartabs.cc/tabs/o/oasis/just_getting_older_tab.html ]
Solo 
   A             Amaj7    A7           D  Dm         E     D       A
e------------------------------------------------------------------------
B------------------------------------------------------------------------
G-------9----------9-11-9------------------------------------------------
D--9/11---11~-9/11--------11~-11b(12)r11-7~-(10)r9-7-7---------------7~--
A------------------------------------------------------8-7~--------------
E-----------------------------------------------------------10-10-10-----

Middle 8
                       D*
And I bet that this is how life
                              A*
Turns out when you're finally grown up          
                           D*
And you know that this is my life
                               Bm C#m D* E* D*
I sit around all day and I moan

Verse
A
I'm half-way up
A7
To the bottom
D
Of another bottle of
   Dm
My next best favourite friend
              E
Am I cracking up?
                D   A
Or just getting older?

Outro
                    E                       D   A
You're not cracking up, you're just getting older
                   E                      D   A
We're not cracking up, we're just getting older
                   E                      D    
We're not cracking up, we're just getting older

Dm                         A
e--12---------------------------
B-----15-13----12----12-13-14~--
G-----------14----14------------
D-------------------------------
A-------------------------------
E-------------------------------
Comments