Oasis - It's Good To Be Free Chords & Tabs

 

It's Good To Be Free Chords & Tabs

Oasis Chords & Tabs

Version: 1 Type: Tab 0 ratings
1 star 2 stars 3 stars 4 stars 5 stars
comments

It's Good To Be Free Tab

   
(It's Good) To Be Free, written by Noel Gallagher, performed by Oasis. 
Song can be found on the "Whatever" single.  transcripted by KIERAN CAHILL [ kmcahill@indigo.ie]
Chords used: 
Em (022000) 
C (x32010) 
C2 (x35553) 
D (xx0232) 
D2 (x57775) 
D/F# (2x0232) 
A (x02220) 
Am (x02210) 
NOTE: What you've got in this song is one guitar playing each chord with 
distortion, another guitar with a sort of fuzzy, muffled effect picking 
the strings separately for each chord, and a third guitar doing the solos 
and the fills with heavy distortion. Anyways, the second guitar that's 
picking the strings separately plays an "Em7" (022030) while the first 
guitar is plays an "Em", and the second guitar also plays a "Cadd9" 
(x32030) while the 1st guitar plays the "C"s in the song. Listen to the 
song to hear the pattern at which the 2nd guitar is picking the strings. 
  
Intro 
----- 
Tab Key: 
b = bend (7b8 means bend the string at the 7th fret to make the note that 
the string would make if played at the 8th fret with no bend) 
r = release bend 
s = slide 
/ = a slower slide 
h = hammer on 
p = pull off 
^ = vibrate the note 
* = Artificial Harmonic (a.k.a. "scream"). Done by picking the string and 
     your index finger brushing against the string at the same time as the 
     pick. 
  
  G       Em            C          A   Am               Em 
e--------------------------------------------------------------------------- 
B--------------------------------------------------------------------------- 
G----------9^^^---------9--7------------s9--7-----------9--9--9--7---------- 
D-----------------------------9/2--------------9/2------------------9/2----- 
A--------------------------------------------------------------------------- 
E---------------------------------------------------------------------------
 
e--------------------------------------------------------------------------- 
B--------------------------------------------------------------------------- 
G--------------------------------------------------------------------------- 
D-------0--0-------0--0h2--------------------------------------------------- 
A--0h2--------0h2----------------------------------------------------------- 
E--------------------------------------------------------------------------- 
  
Verse 1 
------- 
[ Tab from: http://www.guitartabs.cc/tabs/o/oasis/its_good_to_be_free_tab.html ]
e--------------------------------------------------------------------------- 
B--------------------------------------------------------------------------- 
G--------------------------------------------------------------------------- 
D--------------------------------------------0--0-------0------------------- 
A---------------------------------------0h2--------0h2---------------------- 
E--------------------------------------------------------------------------- 
  
Chorus 
------ 
[NOTE: The following chords are played by one guitar while the riff 
below is played by another for each line of the chorus] 
       
e---------------------------------------------------------------------------- 
B---------------------------------------------------------------------------- 
G-------------------0----------------0--------------------------------------- 
D--------------2-----------------4---------------------0--0-------0---------- 
A---------3------------3---3s5--------------------0h2--------0h2------------- 
E----------------------------------------0----------------------------------- 
      
e----------------------------------------------------------------------------- 
B----------------------------------------------------------------------------- 
G----------------------------------------------------------------------------- 
D---------------------------------------------------2------0--0h2-----2-----2- 
A------------------------------------------------------0h2--------------0h2--- 
E------------------------------------------------0-----------------0---------- 
      
e--------------------------------------------------------------------------- 
B--------------------------------------------------------------------------- 
G--------------------------------------------------------------------------- 
D-------------------------------------------------------0--0h2-------------- 
A-----0--------------0-----------------------------0h2---------------------- 
E--------------3b3.5---------------3b3.5---0-------------------------------- 
  
Guitar Solo 
----------- 

   G    D/F#      Em           C     D        Em           D    D/F#     Em 
e--------------------------------------------------------------------------- 
B--------------------------------------------------------------------------- 
G--9^^9^^9--7---------------7--9^^9^^9--7---------------7--9^^9^^9--7------- 
D--------------9-------7s9-----------------9-------7s9-----------------9---- 
A-----------------7^^-------------------------7^^-------------------------7- 
E--------------------------------------------------------------------------- 
           C     D   Em     G     D/F#           Em 
e--------------------------------------------------------------------- 
B--------------------------------12-------12-------------------*------ 
G-------7--9^^9^^9--7------------14b15.5--14b15.5--14p12------12------ 
D--7s9-----------------9----------------------------------14------14-- 
A-------------------------7------------------------------------------- 
E--------------------------------------------------------------------- 
  
      C      D     Em 
e---------------------------------------------------------------------- 
B---------------------------------12-------12-------------------*------ 
G----------*----------12--14--12--14b15.5--14b15.5--14p12------12------ 
D---------12-12-12h14--------------------------------------14------14-- 
A---12h14-------------------------------------------------------------- 
E---------------------------------------------------------------------- 
      G     D/F#         Em 
e----------------------------------------------------------------------------- 
B----------------------------------------12-------12-------------------------- 
G----------------------------12--14--12--14b15.5--14b15.5--14p12-----12-12---- 
D---------12-12--------12h14-------------------------------------14--------14- 
A---12h14--------12h14-------------------------------------------------------- 
E----------------------------------------------------------------------------- 
         A       Am 
e------------------------------------------------------------------------- 
B-----------------------------------*------------------------------------- 
G--------------12--14--14b15.5r14--12-------12h14-12--14b15.5r14--12------ 
D------12--14--------------------------14-----------------------------14-- 
A--14--------------------------------------------------------------------- 
E------------------------------------------------------------------------- 
         Em 
e-------------------------------------------------------------------------- 
B-----------------*--------------*----------------------------------------- 
G----------------12-------------12----------------------------------12--14- 
D--------12h14-------14---12h14-----14----------12--12--------12h14-------- 
A--12h14---------------------------------12h14----------12h14-------------- 
E-------------------------------------------------------------------------- 
   A      Am                   Em 
e------------------------------------------------------------------------- 
B------------------------------------------------------------------------- 
G--14b15.5r14--12-------------------------12--14b15.5--------------------- 
D------------------14---------12--12--14---------------------------------- 
A----------------------12h14---------------------------------------------- 
E------------------------------------------------------------------------- 
Questions, comments, corrections, requests to kmcahill@indigo.ie 

                        ENJOY
Comments