Oasis - I Hope I Think Chords & Tabs

 

Oasis Chords & Tabs

Version: 1 Type: Tab 0 ratings
1 star 2 stars 3 stars 4 stars 5 stars
comments

I Hope I Think Tab

   
#----------------------------------PLEASE NOTE--------------------------------#
#This file is the author's own work and represents their interpretation of the#
#song. You may only use this file for private study, scholarship, or research.#
#-----------------------------------------------------------------------------#

Date: Wed, 1 Apr 1998 11:48:07 -0500 (EST)
From: Fred Lidskog 
Subject: TAB: I Hope I Think I Know  by Oasis  



"I Hope I Think I Know"
Performed by Oasis
>From the album "Be Here Now" on Sony/Creation Records
Music by: N. Gallagher
Lyrics by: N. Gallagher
(c)1997
-------------
Tabbed by Fred Lidskog 

Chords used:

 EADGBe
A(x02220)
A2(577655)
Asus2(x02200)
Bm(x24432)
D(xx0232)
D2(x57775)
Em(022000)
F#m11(x44200)
G(3x0033)
G2(355433)

Tab Key:

h = hammer on
p = pull off
b = bend (7b8 means bend string at 7th fret to make approximately the note
   the string would make if played at the 8th fret with no bend
r = release bend
s = slide (a quick slide, two notes sound like one)
/ = a slower slide, play first note specified, then slide to second
> = slide sown an unspecified amount
~ = hold note

Intro
=====
-Starts with amplifier feedback, then:

  D       Em G   Bm            A       G   D      Em  G
e--------------------------------------------------------------------
B---------------------7-8-7--10--8--7--------------------------------
G-9b11~~-9b11--9~~--9------------------9------7-9bbb11--9b11--b11r9--
D-----------------------------------------7h9------------------------
A--------------------------------------------------------------------
E--------------------------------------------------------------------

    Bm  A       G
e-------------------------------
B---7-8-7--10--8--7-------------
G-9------------------9------7---
D-----------------------7h9-----
A-------------------------------
E-------------------------------


e----------3-------------3-------3-------3----------3-------3-----
B----------3-------------3-------3-------3----------3-------3-----
G----------0-------------0-------0-------0----------0-------0-----
D----------0-------------0-------0-------0----------0-------0-----
A----------x-------------x-------x-------x----------x-------x-----
E----------3---------2---3---2---3---2---3------2---3---2---3---5-

NOTE: If you don't think the tabbed part above sounds just right, perhaps
you might try alternating between
A G and A G/F# or A G5 and A G5/F#
e-3--------3-------------------------------------------------
B-3--------3-------------------------------------------------
G-0--------0-------------------------------------------------
D-0--------0--------5---------5------------------------------
A-x--------x--------5---------5------------------------------
E-3--------2--------3---------2------------------------------


Chorus
======
e-----------------------3---------3-------3----------------------------
B-----------------------3---------3-------3----------------------------
G-----------------------0---------0-------0----------------------------
D-----------------------0---------0-------0----------------------------
A-----------------------x---------x-------x----------------------------
E-----------------------3-----2---3---2---3------5---------------------

  
e---------------------0--------------3----------------------------------
B---------------------0--------------3----------------------------------
G---------------------0--------------4----------------------------------
D---------------------2--------------5----------------------------------
A---------------------2--------------5----------------------------------
E---------------------0--------0--2--3----------------------------------


e---------------------------------3-----------------------0--------
B---------------------------------3-------------------0-----0------
G---------------------------------4-----------------2---2-----2----
D---------------------------------5---------------4----------------
A---------------------------------5---------------4----------------
E------------------------------2--3---------------2----------------

      
e--------------0-------0----------------------
B--------------0---0-----0--------------------
G--------------2-2---2-----2------------------
D--------------2------------------------------
A--------------0------------------------------
E---------------------------------------------

  
e--------------------------------------------------------------------
B---------------------7-8-7--10--8--7--------------------------------
G-9b11~~-9b11--9~~--9------------------9------7-9bbb11--9b11--b11r9--
D-----------------------------------------7h9------------------------
A--------------------------------------------------------------------
E--------------------------------------------------------------------

    Bm  A       G     
e---------------------------------------
B---7-8-7--10--8--7---------------------
G-9------------------9------7--9b11--7--
D-----------------------7h9-------------
A---------------------------------------
E---------------------------------------

Verse 
=====

e-------------------------------------------------------------------
B-------------------------------------------------------------------
G-------------------------------------------7-----------------------
D--------------------------------------7h9--------------------------
A-------------------------------------------------------------------
E-------------------------------------------------------------------

   
e---------------------------------------------------
B----------------------------10---------------------
G---------------------9b10.5----b10.5r9--9--7--9--7-
D---------------------------------------------------
A---------------------------------------------------
E---------------------------------------------------
[ Tab from: http://www.guitartabs.cc/tabs/o/oasis/i_hope_i_think_tab.html ]
  
e------------------------------------------------------------------
B------------------------------------------------------------------
G----------------------------------------7--9--7-------------------
D------------------------------------7h9---------------------------
A------------------------------------------------------------------
E------------------------------------------------------------------

   
e-----------------------------------------------------------------------
B-----------------------------------------------------------------------
G--------------------9b10.5--9--9--7------------------------------------
D-----------------------------------------------------------------------
A-----------------------------------------------------------------------
E-----------------------------------------------------------------------


e----------3-------------3-------3-------3----------3-------3-----
B----------3-------------3-------3-------3----------3-------3-----
G----------0-------------0-------0-------0----------0-------0-----
D----------0-------------0-------0-------0----------0-------0-----
A----------x-------------x-------x-------x----------x-------x-----
E----------3---------2---3---2---3---2---3------2---3---2---3---5-
e-----------------------3---------3-------3-------------------------
B-----------------------3---------3-------3-------------------------
G-----------------------0---------0-------0-------------------------
D-----------------------0---------0-------0-------------------------
A-----------------------x---------x-------x-------------------------
E-----------------------3-----2---3---2---3------5------------------

  
e---------------------0--------------3-------------------------------
B---------------------0--------------3-------------------------------
G---------------------0--------------4-------------------------------
D---------------------2--------------5-------------------------------
A---------------------2--------------5-------------------------------
E---------------------0--------0--2--3-------------------------------

 
e---------------------------------3-----------------------0--------
B---------------------------------3-------------------0-----0------
G---------------------------------4-----------------2---2-----2----
D---------------------------------5---------------4----------------
A---------------------------------5---------------4----------------
E------------------------------2--3---------------2----------------

  
e--------------0-------0----------------------
B--------------0---0-----0--------------------
G--------------2-2---2-----2------------------
D--------------2------------------------------
A--------------0------------------------------
E---------------------------------------------

Solo
====
 
e---------12---------------------------------------------------
B----------------------------------------------------------0---
G-14b15.5----14b15.5r14--12--12~~~~~---12-12/11-11/9-9/7-7-0---
D----------------------------------------------------------0---
A--------------------------------------------------------------
E--------------------------------------------------------------


e---------12------------------------------------------------------
B-----------------------------------------------------------------
G-14b15.5----b15.5r14--12--12--12-12/11-11/9-9/7-7/6-6/4-4/2-2p0--
D-----------------------------------------------------------------
A-----------------------------------------------------------------
E-----------------------------------------------------------------

  A    G2
e-------------------------------------------------------------------3--
B--------------------------------------2----------------------------3--
G-12--12/11-11/9-9/7-7/6-6/4-4/2-2p0---2-(with a whole lot of other-4--
D--------------------------------------2---noise going on-----------5--
A--------------------------------------0----------------------------5--
E-------------------------------------------------------------------3--

[CHORUS]
-then:

  D  Em G  Bm        A         G
e------------------------------------------------------------------
B------------------------------------------------------------------
G-9b10.5--9b10.5--9-----------7--9~~b10.5r9--7--9~~b10.5--7------7-
D-----------------------7--9---------------------------------7h9---
A------------------------------------------------------------------
E------------------------------------------------------------------

  D  Em    G    Bm          A    G
e-----------------------------------------------------------
B---------------------------------8-------------------------
G-9b10.5--9b10.5--b10.5r9----9s11---b10.5r9--7------7--7~~~-
D-----------------------------------------------7h9---------
A-----------------------------------------------------------
E-----------------------------------------------------------

  D     Em          G               Bm           A    G
e----------------------7-------------------------------------------------
B----------------------------------------------------------7-7------7-7--
G-12---11---9--9b10.5----b10r9--7--------12---11---9--9b11-----9b11------
D----------------------------------9--7----------------------------------
A------------------------------------------------------------------------
E------------------------------------------------------------------------

  D     Em        G Bm A
e---------------------7-------------------------7-7--------7-7--------7-7--
B-----------------------------------------------7-7--------7-7--------7-7--
G-12---11---9--9b10.5---b10.5r9--7-------9b10.5-----9b10.5-----9b10.5------
D----------------------------------9--7------------------------------------
A--------------------------------------------------------------------------
E--------------------------------------------------------------------------

      G D
e--------7-7--------7-7----------------------------------------------------
B--------7-7--------7-7----------------------------------------------------
G-9b10.5-----9b10.5------9bb10.5----b10.5rr9--------9--7~~~>--(digital-----
D----------------------------------------------7h9--9--7~~~>---repeat------
A--------------------------------------------------------------of last-----
E--------------------------------------------------------------note)-------

Questions, comments, corrections, requests to swede@email.unc.edu
Comments