Oasis - I Hope I Think I Know Chords & Tabs

 

I Hope I Think I Know Chords & Tabs

Oasis Chords & Tabs

Version: 1 Type: Bass Tab 0 ratings
1 star 2 stars 3 stars 4 stars 5 stars
comments

I Hope I Think I Know Bass Tab

   
I Hope, I think, I Know- Oasis
Album- Be Here Now
Tabbed by: Mike Crowder on January 5, 2000

Intro \ Verse

G--------------------------------------------------
D--------------------------------------------------
A-5--5-5-5-5---------------2--2-2-2-2-0--0-0-------
E------------0--0-0-3--3-3-------------------3--3-3	

Bridge

G---------------------------------------------------------
D--------------------------5--5-5-5-5---------------------
A-0--0-0-0-0-7--7-7--7-7-7------------5--5-5--5-5-5-0--0-0
E---------------------------------------------------------
[ Tab from: http://www.guitartabs.cc/tabs/o/oasis/i_hope_i_think_i_know_btab.html ]
G---------------------------------------------------------
D---------------5-5-5-0-0-0-5-5-5-4-4-4-0-0-4-4-5-5-5-0-0-
A-7--7-7--7-7-7-------------------------------------------
E---------------------------------------------------------

G-----------------------
D-0-5-5-5-4-4-4-0-0-4-4-
A-----------------------
E-----------------------

Chorus

G----------------------------------------------------------
D---------------------------5-5-5-0-0-0-5-5-5-4-4-4-0-0-4-4
A-5--5-5-5-5-0--0-0-0-0-0-0--------------------------------
E----------------------------------------------------------

G----------------------------------------------------------
D---------------------------5-5-5-0-0-0-5-5-5-4-4-4-0-0-4-4
A-5--5-5-5-5-0--0-0-0-0-0-0--------------------------------
E----------------------------------------------------------

G----------------------------------------------------------D-
A-------5-5-5
E-0-0-0-------3-3-0-0-0-0-0


Comments