Oasis - Hey Hey My My Chords & Tabs

 

Hey Hey My My Chords & Tabs

Oasis Chords & Tabs

Version: 3 Type: Tab 0 ratings
1 star 2 stars 3 stars 4 stars 5 stars
comments

Hey Hey My My Tab

   
Artist: Oasis
Title: Hey Hey, My My
Transcribed by: Allison Aradi
original version by Neil Young

Chords:
         (T*)            * use thumb on 1st fret 6th string
Fmajsus2: 122010
Am: x02210
D5: xx032x
C: X32001
G: 320033
Em: 02200

Riff 1/intro

E ----------------------------------------------|
B -------------------------1-1-1-1-0-1-1-1-1----|
G -------------------------2-2-2-2-0-2-2-2-2----|   x2
D ------------0------------3-3-3-3-0-3-3-3-3----|
A --0---0-2-3---2-0---0----3-3-3-3-0-3-3-3-3----|
E ------------------3------1-1-1-1-0-1-1-1-1----|

Verse:
[ Tab from: http://www.guitartabs.cc/tabs/o/oasis/hey_hey_my_my_tab_ver_3.html ]
Am  D5      Fmajsus2
Hey hey, my my
Am       D5               Fmajsus2
rock 'n' roll will never die
C                   G
there's more to the picture
Am              Fmajsus2
than meets the eye
Am  D5      Fmajsus2
hey hey, my my

riff1

Solo:

E ------5-----------------------------|
B --------8--5------------------------|
G --7^9--------7^9^7--5--8--7--5--7^9-|
D ------------------------------------|
A ------------------------------------|
E ------------------------------------|

riff 1

verse
Verse

ending riff
E -------------------------------0-0---|
B -------------------------------0-1---|
G -------------------------------0-2~~-|
A -0--0-2-3-5~~2-0---------------0-2---|
E ------------------3-2-3~~--4~~-0-0---|
Comments