Oasis - Hello Chords & Tabs

 

Hello Chords & Tabs

Oasis Chords & Tabs

Version: 2 Type: Bass Tab 0 ratings
1 star 2 stars 3 stars 4 stars 5 stars
comments

Hello Bass Tab

   
Hello- Oasis
What's The Story (Morning Glory)
Tabbed by Mike Crowder on 23 January, 2000
Email at Michael_Crowder@yahoo with corrections or comments

Intro/Verse

G--------------
D--------------
A--------3-3-3-
E-4--4-4-------

This Riff repeats over and over throughout the verse.

Bridge

We live in the shadows..			
G-------------------------------
D-------------------------------
A-------------------------------
E-0-0-0-0-5-5-5-5-1-1-1-1-3-3-3-

							  Coz the years..
And it's never gonna be the same..	  Till the life..
[ Tab from: http://www.guitartabs.cc/tabs/o/oasis/hello_btab_ver_2.html ]
G----------------------------------------------------------
D----------------------------------------------------------
A--------------3--------2------0---------------------------
E-------------------------------------------------1-1-1-1-3

G-------
D-------
A-------
E-3-3-3-	x2 

Chorus

	Hello!	Hello!	Said it's good to be back

G----------------------------------------------------
D----------------------------------------------------
A----------------------------------------------------
E----1-1-1-1--3-3-3-3-----5-5-5-5-5-5-5-5-5-5-5-5-5--	x3

The song ends on the A.
Comments