Oasis - Gas Panic Live Chords & Tabs

 

Gas Panic Live Chords & Tabs

Oasis Chords & Tabs

Version: 1 Type: Tab 0 ratings
1 star 2 stars 3 stars 4 stars 5 stars
comments

Gas Panic Live Tab

   
Oasis
Gas Panic Live
Tabber: Unknown

This is a great song and even better when it is played live from the wembley album

Chords used (put capo on 3rd fret to be in key with the song)

Bb6(x13030)
Fadd9/6(x33030)
Gm7(313033)
Bb5(x133xx)
C5(x355xx)
G5(3x0033)
F(133211)

Picky bit at the start of FTM version
-------------------------------------

  Bb6      Fadd9/6  Gm7
e-------------------------------------
B-----3--------3--------3-------3-----
G-------0--------0--------0-------0---
D---3--------3--------3-------3-------
A-1--------3--------------------------
E-------------------3-------3---------

Or if that doesn't sound right try this:

e-----0-----------0-----------0------------0-----------
B-------3-----------3-----------3------------3---------
G---------(0)---------(0)---------(0)----------(0)-----
D---3-----------3-----------3------------3-------------
A-1-----------3----------------------------------------
E-------------------------3------------3---------------

Use a flanger on a high speed setting.


Reverse bits 
------------

Played during intro by Gem (or some sampler thingy.....)

  First one:Second one:
e----------------------------------------------------
B-8b9r8-6---------------9~/11------------------------
G---------8------------------------------------------
D----------------------------------------------------
A----------------------------------------------------
E----------------------------------------------------

Use the 5th chords above for the chorus except use F5 instead of C5.

Solo
----

e--------------------------------------------------------------------
B--------------------------------------------------------------------
G-17b19~~-19r17-15~~-17b19~~-19r17-15~~--3~~~------------------------
D--------------------------------------------------------------------
A--------------------------------------------------------------------
E--------------------------------------------------------------------

e--------------------------------------------------------------------
B--------------------------------------------------------------------
G-17b19~~-19r17-15~~-17b19~~-19r17-15~~-17b18-18r17-15~~-----3~~~~~~-
D--------------------------------------------------------------------
A--------------------------------------------------------------------
E--------------------------------------------------------------------

And then Gem and Andy the same riff two octaves apart
(could use an octave pedal here!)

e--------------------------------------------------------------------
B--------------------------------------------------------------------
G-6h8-6--------------------------------------------------------------
D-------8-6----------------------------------------------------------
A-----------8p6p4----------------------------------------------------
E-----------------6~~------------------------------------------------

Back to Noels part...

e-----------------------------------------------------------------------
B-9-------------------------6-9b11~~----(6)----9(6)----9(6)----9------9-
G-8b10--8~~-6-8b10-8-6---------------6~-8b10-----8b10----8b10---8b10----
D----------------------8~~----------------------------------------------
A-----------------------------------------------------------------------
E-----------------------------------------------------------------------

e-----------------------------------------------------------------------
B------------------------------------------------------------------9----
G----6-------6-------6-------6---------6-8b10r8-6-8b10-6-8~-6-8/10------
D-8~---8p6h8---8p6h8---8p6h8---8p6h8~~----------------------------------
A-----------------------------------------------------------------------
E-----------------------------------------------------------------------
[ Tab from: http://www.guitartabs.cc/tabs/o/oasis/gas_panic_live_tab.html ]
e-----------------------------------------------------------------------
B----9-10-11~~-11b14-11b14-11b14~~~-------------------------------------
G-10--------------------------------------------------------------------
D-----------------------------------------------------------------------
A-----------------------------------------------------------------------
E-----------------------------------------------------------------------



End riffs
---------

e-----------------------------------------------------------------------
B--------------------------------------9--------------------------------
G---6---------6---------6---------8b10---10r8-8-6----------------------- 
D-8---8-6h8-8---8-6h8-8---8-6h8~~-----------------8-6h8-8---------------  
A----------------------------------------------------------------------- 
E----------------------------------------------------------------------- 

x3
Repeat again but only the first part of the riff.



Gem does this:

e----------------------------------------------------------------------- 
B----------------------------------------------------------------------- 
G-8b9-8-6-----------8b9-8-6-----------8b9-8-6--------------------------- 
D---------8-8p6h8~~---------8-8p6h8~~---------8-8p6h8~------------------ 
A-----------------------------------------------------------------------
E-----------------------------------------------------------------------

Riff 1:
Noel does this riff a bit after Gem does the part below


e------------------------------------------------------------------9-11b13~~-9--------
B-----------9b11~r9-----9b11r9------------------------------11-9~~-------------11~~---
G-8b9-8-6-----------6~~--------6~~-------------8p6---6h8/10---------------------------
D---------8--------------------------------6h8-----8----------------------------------
A------------------------------------4h6/8--------------------------------------------
E----------------------------------8--------------------------------------------------


Gem and Noel switch on their DD-5 into reverse mode now so I'll tab everything
as if it was played normally (understand? Good. I don't)


e---------------------0/18vvvvvvvvv/0/6/18vvvvvvvvvvv-------------------
B-----------9b11~~~~----------------------------------------------------
G-8b10r8b10-------------------------------------------------------------
D-----------------------------------------------------------------------
A-----------------------------------------------------------------------
E-----------------------------------------------------------------------


Noel does...            And Gem does....


e-----------------------------------------------------------------------
B---------------------9b11p6--------------------------------------------
G-6--7p6h10p6----------------8p6----------------------------------------
D-------------8~~----------------8~~------------------------------------ 
A-----------------------------------------------------------------------
E-----------------------------------------------------------------------
A few times each



Then Noel goes nuts with his slide (impossible to tab, just put your DD-3 on and go nuts)
Gem also does random backwards noises which are similar to some of the above riffs.

Then after all that randomness Gem does Riff 1 while Noel does.....

e-----------------------------------------------------------------------
B------9-----------------------------------------9----------------------
G-8h10---10~~------8p6~~------------------6-8/10---8p6------------------
D--------------6h8-----------6h8p6---8~~---------------8~~--------------
A------------------------6h8-------8------------------------------------
E-----------------------------------------------------------------------


e--------------------------------------6--------------------------------
B------9-------------------------9-----9b11~~~~-------------------------
G-8h10---10~~------8p6~~--6-8/10---8p6---------------------------------- 
D--------------6h8------------------------------------------------------ 
A----------------------------------------------------------------------- 
E-----------------------------------------------------------------------

Hold the last note and repeat with digital delay

%%%%%%%%%%%%%%%%%%%%%%%%%%%%%%%%%%%%%%%%%%%%%%%%%%%%%%%%%%%%%%%%%%%%%%%%
Comments