Oasis - Fuckin In The Bushes Chords & Tabs

 

Fuckin In The Bushes Chords & Tabs

Oasis Chords & Tabs

Version: 2 Type: Tab 0 ratings
1 star 2 stars 3 stars 4 stars 5 stars
comments

Fuckin In The Bushes Tab

   
Oasis Fuckin' In the Bushes.
Tabbed by Nik Hinton xerxes_100@hotmail.com.
  
This song had a cool little riff for the guitar. I figured it out and then had to figure the rest out, so here it is.... it is in my opinion accurate but any troubles please do tell me... also any requests for Oasis tabs I'd be happy to try.

e:-----------------------------------------
B:-----------------------------------------
G:-----------------------------------------
D:----------------------------------------- %[repeat 
A:------------------5--3-------5-----------   x27!!!]
E:---0--0--0--3--0--------5--3-------------    

Then comes in the start for the lead part:
(i'ev split it up into parts, so i can explain the later part ezr)

Part A)
e:-----------------------------------------
B:--14b--12------------14b-12-------------- % x4
G:------------14-------------14------------
D:-----------------------------------------
A:-----------------------------------------
E:-----------------------------------------
[ Tab from: http://www.guitartabs.cc/tabs/o/oasis/fuckin_in_the_bushes_tab_ver_2.html ]
PartBi:
e:-----------------------------------------
B:-----------------------------------------
G:--14-12---------------------------------- x4
D:--------14-12----12-14-12-14b-------------
A:--------------14--------------------------
E:-----------------------------------------
go straight into part B)ii)
B)ii)
e:------------------------------------------
B:--12------------------13-------------------
G:--12--------14-12------------14--12--14--12 
D:-----14------------14---------------------- 
A:------------------------------------------ 
E:------------------------------------------ 
Then into part C
Part C)
e:-------------------------------------------------
B:-14-12-------------------------------------------
G:-------14-12----12--14-12------------------------
D:-------------14-----------14-12----12-14-12-14-14 x1
A:--------------------------------14---------------
E:-------------------------------------------------

BAck to part A x5 i think.. not sure exactly how many times! just play Cd to find out!

then while that is playing another guitar plays this just once on the 2nd to last time
G:---12h14
D:---12h14 VVVVVVVVV (with tremlo arm)

then part B)i)again..this time play 16 times

and during that another guitar plays a little high bit in the back ground that goes (its quite and unimportant only comes in once after 10 times)

e:--22b/\-VVVVVVVVV--22-20--20--22--
b:------------------------22--------

thx dudes... a good intrumental by oasis..... Noels wicked man! 

:: Ultimate Guitar Archive :: 
http://www.ultimate-guitar.com 



Comments