Oasis - Dont Look Back In Anger Chords & Tabs

 

Dont Look Back In Anger Chords & Tabs

Oasis Chords & Tabs

Version: 4 Type: Bass Tab 0 ratings
1 star 2 stars 3 stars 4 stars 5 stars
comments

Dont Look Back In Anger Bass Tab

----------------------------------------------------------------------------
		   Dont Look Back in Anger - Oasis
----------------------------------------------------------------------------

Tabbed By: Tease 
e-mail: bass113@msn.com

Intro:

G|--------------|--------------|--------------|--------------|
D|--------------|--3-----------|--------------|--3-----------|
A|--3-----------|--------------|--3-----------|--------------|
E|--------------|--------------|--------------|--------------|

Verse:

G|--------------|--------------|--------------|--------------|-------------|
D|--------------|--------------|--------------|--------------|-------------|
A|--3--3--------|--------------|--------------|--3--3--------|--3--3-------|
E|--------3--3--|--5--5--0--0--|--1--1--3--3--|--------5--3--|--------3--3-|

G|--------------|--------------|--------------|
D|--------------|--------------|--------------|
A|--------------|--------------|--3--3--------|
E|--5--5--0--0--|--1--1--3--3--|--------5--3--|

Bridge:

G|--------------|--------------|--------------|--------------|-------------|
D|--------------|--------------|--------------|--------------|-------------|
A|--------------|--3--3-3------|--------------|--3--3-3------|-------------|
E|--1--1-1--1---|--------------|--1--1-1--1---|--------------|--1--1-1--1--|
[ Tab from: http://www.guitartabs.cc/tabs/o/oasis/dont_look_back_in_anger_btab_ver_4.html ]
G|--------------|---------------|---------------|--------------|-----------|
D|--------------|---------------|---------------|--------------|-----------|
A|--3--3-3------|---------------|---------------|--------------|-----------|
E|--------------|3-3-3-3-3-3-3-3|0-0-0-0-0-0-0-0|--5--5--3--3--|--1--1-1--1|

G|--------------|--------------|
D|--------------|--------------|
A|--------------|--------------|
E|--3--3-3--3---|--3--3-3--3---|

Chorus:

G|--------------|--------------|--------------|---------------|------------|
D|--------------|--------------|--------------|---------------|------------|
A|--3--3--------|--------------|--------------|--3--3---------|--3--3------|
E|--------3--3--|--5--5--0--0--|--1--1--3--3--|--------5--3---|--------3--3|

G|--------------|--------------|--------------|
D|--------------|--------------|--------------|
A|--------------|--------------|--3--3--------|
E|--5--5--0--0--|--1--1--3--3--|--------5--3--|

Coda:

G|--------------|--------------|--------------|---------------|------------|
D|--------------|--------------|--------------|---------------|------------|
A|--3--3--------|--------------|--------------|--3--3---------|--3--3------|
E|--------3--3--|--5--5--0--0--|--1--1-3--3---|--------5--3---|--------3--3|

G|--------------|--------------|--------------|---------------|------------|
D|--------------|--------------|--3-----------|---------------|------------|
A|--------------|--------------|--------------|--3--3---------|------------|
E|--5-----------|--1-----------|--------------|--------3--3---|--5--5-0--0-|

G|--------------|--------------|
D|--------------|--------------|
A|--------------|--3-----------|
E|--1--1-3--3---|--------------|

Order:

Intro  (x1)
Verse  (x2)
Bridge (x1)
Chorus (x1)
Bridge (x1)
Chorus (x1)
Coda   (x2)

Am 99% sure that is the order the bass line is played.
Comments