Oasis - Cigarettes And Alcohol Chords & Tabs

 

Cigarettes And Alcohol Chords & Tabs

Oasis Chords & Tabs

Version: 5 Type: Tab 0 ratings
1 star 2 stars 3 stars 4 stars 5 stars
comments

Cigarettes And Alcohol Tab

   
OASIS
CIGARETTES AND ALCOHOL
FROM DEFINITELY MAYBE

No decent tabs for this song, so here's how it goes

CHORDS:
E5:      (022xxx)
F#:      (2443xx)
A5:      (x022xx)
F#7add11:(244300)
Dsus2:   (xx0230)
A:       (x02220)
Cadd9:   (x3203x)
B7:      (x2120x)

INTRO:
This is the intro riff and main riff that appears again lower down, Slight rip off of 
it on" by T-Rex but still an ace song! Listen to song to get the riff right.

E5                                                           F#         A5
E---------------------------------------------------------------------------|
B---------------------------------------------------------------------------|
G---------------------------------------------------------------3-3-3-3-2-2-|
D---------------2-2--------------    ---------------2-2-------4-4-4-4-4-2-2-|
A-2-2-4-2-2-2-4-2-2-4-2-2-------- X2 -2-2-4-2-2-2-4-2-2-4-2-2-4-4-4-4-4-0-0-|
E-0-0-0-0-0-0-0-----0-0-0-3-2-0--    -0-0-0-0-0-0-0-----0-0-0-2-2-2-2-2-----|

            E5 (strum like first part of intro)
E----------PART 2-----------------------------------------------|
B-----------9-9-9--9--9-9-9-9--------9-9-9--9--10-9-10-9--------|
G-2-2-2-2---9-9-9--9--9-9-9-9--------9-9-9--9--9--9-9--9--------|
D-2-2-2-2---9-9-9--9--9-9-9-9--------9-9-9--9--11-9-11-9--------|
A-0-0-0-0-------------------------------------------------------|
E------------------------------3-2-0----------------------------|

OVER A5 ON RIFF AND IN VERSES PLAY:

E-0--0--0--0--0--0--0--|
B-12-12-12-10-10-10-10-|
G-13-13-13-11-11-11-11-|
D----------------------|
A----------------------|
E----------------------|

VERSE 1: PLAY E5 CHORD LIKE FIRST PART OF INTRO

      E5
Is it my imagination
          F#7add11      A5                      E5
Or have I finally found something worth living for? (2nd part of intro riff)
      E5
I was looking for some action
    F#7add11        A5                   E5
But all I found was cigarettes and alcohol  (2nd part of intro riff again)

BRIDGE

A5                   E5
You could wait for a lifetime,
A5                        E5
To spend your days in the sunshine,
A5                       E5
You might as well do the white-line,
              Dsus2        A
Cause when it comes on top:
[ Tab from: http://www.guitartabs.cc/tabs/o/oasis/cigarettes_and_alcohol_tab_ver_5.html ]
CHORUS
                  E5     Dsus2
You gotta make it happen,
          A          E5  Dsus2
You gotta make it happen,
          A          E5  Dsus2
You gotta make it happen,
          A          E5  Dsus2  A  Cadd9  B7
You gotta make it happen,


MINI RIFF THING

Cadd9           B7         E5
G-11b12rb--9----6b7rb-4s1--1--1

INTRO RIFF AGAIN

VERSE 2
CHORDS IN SAME PLACE

Is it worth the aggravashuuun_____
To find yourself a job when there's nothing worth working for,
It's a crazy situashuuun_______
But all i need are cigarettes and alcohol,

BRIDGE

CHORUS

INSTRUMENTAL: E5  Dsus2  A  x4

E5                  Dsus2       A
You gotta, you gotta, you gotta make it!
E5                  Dsus2       A
You gotta, you gotta, you gotta fake it!
E5                  Dsus2       A
You gotta, you gotta, you gotta make it!
E5                  Dsus2       A
You gotta, you gotta, you gotta fake it!

GUITAR SOLO

E5                  Dsus2        A            E5                 Dsus2
E---------------------------------------------------------------------------|
B-12------------------------------------------------------------------------|
G-14b16-14b16--12--12--12---0------------0-0--14b16-14b16--14r12---7-7--7r6-|
D----------------14------14-0--12--12-14-0-0--------------------------------|
A---------------------------------------------------------------------------|
E---------------------------------------------------------------------------|

    E5                 Dsus2            A      E5                 Dsus2
E-0--------------------------------------------------------------------------|
B-0-12-----------------------------------------------------------------------|
G---14b16-14b16--14-12--12--12--12-----12-14--14b16-14b16--14-12---7-7---7r6-|
D---------------------14------14--12h14--------------------------------------|
A----------------------------------------------------------------------------|
E----------------------------------------------------------------------------|

Do variations of above line two more times then:

E---------|
B-12------|
G-14b16---| X a lot- do this loads to end
D---------|
A---------|
E---------|

There, please rate cos its virtually spot on, any questions, email me at ashe124@hotmail.com
Comments