Oasis - Cigarettes And Alcohol Chords & Tabs

 

Cigarettes And Alcohol Chords & Tabs

Oasis Chords & Tabs

Version: 1 Type: Tab 0 ratings
1 star 2 stars 3 stars 4 stars 5 stars
comments

Cigarettes And Alcohol Tab

   
#----------------------------------PLEASE NOTE--------------------------------#
#This file is the author's own work and represents their interpretation of the#
#song. You may only use this file for private study, scholarship, or research.#
#-----------------------------------------------------------------------------#

"Cigarettes and alcohol" taken from Definitely Maybe 
written by Noel Gallacher
lyrics by Noel Gallacher

Chords
E         (022100)
F#        (244322)
A         (577655)
A5        (x022xx)
E5        (022xxx)
F#7add11  (244300)
B7        (x24242)
Cadd9     (x32030)
Dsus2     (xx0230)

Here are the riff played by the guitar 1 (Noel Gallacher) while guitar 2 
(Bonehead) plays chords.

Main riff:
  E                 E                 E                  E
-|--4------4------|--4--4---4--------|----4-----4---4---|--5-4-5-4---------|
-|--5------5------|--5--5---5--------|----5-----5---5---|--5-5-5-5---------|
-|--4------4------|--4--4---4--------|----4-----4---4---|--4-4-4-4---------|
-|----------------|------------------|------------------|------------------|
-|----------------|------------------|------------------|--------------2-2-|
-|------0------0--|-------0----3-2-0-|-------0----------|--------------0-0-|
                                                                              
Verse riff:
  E               E                F#                    A               E
-|---------------|----------------|--------------------|-7-7-7-7--5-5----4-|
-|---------------|----------------|--------------------|-9-9-9-9--5-7----5-|
-|---------------|----------------|-----3---3--3--3----|-----------------4-|
-|---------------|----------------|--4--4---4--4--4----|-------------------|
-|-2-2-4--2-2-4--|-2-2-4--2-2-2-2-|--4--4---4--4--4--0-|-------------------|
-|-0-0-0--0-0-0--|-0-0-0--0-0-0-0-|--2--2---2--2--2--0-|-------------------|
                                                                              
Riff 1
  A                           E                     (A)
-|--------------------------|--------------------------|
-|--------------------------|--------------------------|
-|-2--2---------------------|------------------------2-|
-|-2--2-------------------2-|-------------2----------2-|
-|-0--0--3b4-0-3b4-0------0-|------------------------0-|
-|-------------------3b4--0-|----0--3--4-----0--3b4----|
                                                                              
Riff 2
  A                          E
-|--------------------------|--------------------------|
-|--------------------------|--------------------------|
-|-x--2---------------------|--------------------------|
-|-x--2-------------------2-|------------2---------0-0-|
-|-x--0--3b4-0-3b4-0------2-|----------------------0-0-|
-|-------------------3b4--0-|---0--3--4-----0--3b4-----|
                                                                              
Riff 3
  Dsus2      A
-|-------0---------|-----------------|
-|-----------3---2-|----------2-2-2--|
-|-2--2----------2-|----------2-2-2--|
-|---------------2-|----------2-2-2--|
-|---------------0-|----------0-0-0--|
-|-----------------|-----------------|

Riff 4
  E5                Dsus2          A5                                         
-|------0-----0--0-----|-----0--------0---------|
-|------0--3--0--0--3--|--3--0--3--2--0--2------|
-|---------------------|------------------------|
-|---------------------|------------------------|
-|-2-------------------|-------------------2--2-|
-|-0-------------------|-------------------0--0-|
  


Intro X1
--------
 (guitar 2 doesn't play)
-|--------------------------|-------------------------|
-|--------------------------|-------------------------|
-|--------------------------|-------------------------|
-|-----------------------2--|-----2-------------------|X2 
-|--2-----4-----2-----4--2--|-----2--4--2--2--------2-|
-|--0--0--0--0--0--0--0-----|--0-----0--0--0--3--2--0-|
then, play this:                                                                              
A                (E)
-|--------------------------|-------------------------|-7-7-7-7--5-5------4|
-|--------------------------|-------------------------|-9-9-9-9--5-7------5|
-|--------------------------|--------3-----3--3--3----|-------------------4|
-|-----------------------2--|--4-----4-----4--4--4----|--------------------|
-|--2-----4-----2-----4--2--|--4-----4-----4--4--4--0-|--------------------|
-|--0--0--0--0--0--0--0-----|--2-----2-----2--2--2--0-|--------------------|
                                                       
Main riff X1
------------
E    E    E    E

Verse 1
-------
E (with verse riff)            F#              A                      E
_______________________________________________________________________

E (verse riff)                 F#              A
______________________________________________________________________

Main riff X1
------------
E    E    E    E

Pre chorus
----------
A                 E             (with riff 1)
_____________________________
A                 E             (with riff 1)
_____________________________
A                    E          (with riff 2)
_____________________________
Dsus2                      A     (with riff 3)
_____________________________


Chorus
------
E5                    Dsus2   A5    (with riff 4)                  
________________________________
E5                    Dsus2   A5    (with riff 4)
________________________________

  Repeat twice then...


Outro
-----
  Cadd9             B7                 E5                 E5                  
-|-----------------|------------------|------------------|------------------|
-|--7b9r7----5-----|--2b4r2-----------|------------------|------------------|
-|-----------------|---------4-/-1----|--1---------------|------------------|
-|-----------------|------------------|------------------|------------------|
-|-----------------|------------------|------------------|----------------2-|
-|-----------------|------------------|------------------|----------------0-|
  E5                 E5                E5                 E5                  
-|-----------------|------------------|------------------|------------------|
-|-----------------|------------------|------------------|------------------|
-|-----------------|------------------|------------------|------------------|
-|---------------2-|---2--------------|---------------2--|---2-----------4--|
-|-2---4-2-2-2-4-2-|---2-4-2-2-----2--|-2---4-2-2-2-4-2--|---2-4-2-2-2-2-4--|
-|-0-0-0-0-0-0-0---|-0---0-0-0-3-2-0--|-0-0-0-0-0-0-0----|-0---0-0-0-0-0-2--|
  F#7add11          A5                                                        
-|-----------------|-7-7-7-7-5-5---4--|
-|-----------------|-9-9-9-9-5-7---5--|
-|----3-3--3-3-----|---------------4--|
-|-4--4-4--4-4-----|------------------|
-|-4--4-4--4-4--0--|------------------|
-|-2--2-2--2-2--0--|------------------|
                                                                              


Main riff X1
------------
E    E    E    E
[ Tab from: http://www.guitartabs.cc/tabs/o/oasis/cigarettes_and_alcohol_tab.html ]
Verse 2
-------
E (with verse riff)            F#                              A
______________________________________________________________________________________________
E   (with verse riff)            F#                      A
___________________________________________________________

Main riff X1
-----------
E    E    E    E

Pre chorus
----------

Chorus
------

Solo
----
  E5                 Dsus2              A            E5                Dsus2
-|-----------------------|-------------------------|------------------------|
-|-----------------------|-------------------------|------------------------|
-|-------------------11b-|-11b-11br9----9h11-9-x-x-|-------------------11b--|
-|------9-9-9-11-9-9-----|-----------11------------|------9-9-9-11-9-9------|
-|-9-11------------------|-------------------------|-9h11-------------------|
-|-----------------------|-------------------------|------------------------|
                                                                              
             A            E5                 Dsus2                A
-|-9---------------------|-------------------------|------------------------|
-|-----------------------|-------------------------|------------------------|
-|----11-9---9h11-9-x-x--|-------------------11b---|-11b-11br9----9h11r9-x-x|
-|-----------------------|------9-9-9-11-9-9-------|-----------11-----------|
-|-----------------------|-9-11--------------------|------------------------|
-|-----------------------|-------------------------|------------------------|
                                                                              
  E5                 Dsus2                A          E5                Dsus2
-|-----------------------|-------------------------|-4---5--5--5--4------3--|
-|-----------------------|---------------------0---|-5---5--5--5--5------4--|
-|-------------------11b-|-11b---11b---11b-----0---|-4---4--4--4--4------3--|
-|------9-9-9-11-9-9-----|-------------------------|------------------------|
-|-9-11------------------|-------------------------|------------------------|
-|-----------------------|-------------------------|------------------------|
                                                                              
            A              E5                   Dsus2            A
-|-2---------------------|-4--4--5--5--5--4-----3--|-2----------------------|
-|-3--------2--3--2------|-5--5--5--5--5--5-----4--|-3-----------2--3--2----|
-|-2--------2--2--2------|-4--4--4--4--4--4-----3--|-2-----------2--2--2----|
-|----------2--2--2------|-------------------------|-------------2--2--2----|
-|-----------------------|-------------------------|------------------------|
-|-----------------------|-------------------------|------------------------|
                                                                              
   E5                 Dsus2            A             E5                Dsus2
-|-4--4--5--5--5--4---3--|-2-----------------------|-4--4--5--5--5--4----3--|
-|-5--5--5--5--5--5---4--|-3-----------2--3--2-----|-5--5--5--5--5--5----4--|
-|-4--4--4--4--4--4---3--|-2-----------2--2--2-----|-4--4--4--4--4--4----3--|
-|-----------------------|-------------2--2--2-----|------------------------|
-|-----------------------|-------------------------|------------------------|
-|-----------------------|-------------------------|------------------------|
                                                                              
              A            E5                  Dsus2            A
-|-2---------------------|-------------------------|------------------------|
-|-3----------2--3--2----|-------------------------|------------------------|
-|-2----------2--2--2----|-14b--14b-----12-----12--|-----0-------------0--0-|
-|------------2--2--2----|------------------14-----|-14--0------12--14-0--0-|
-|-----------------------|-------------------------|------------------------|
-|-----------------------|-------------------------|------------------------|
                                                                            
  E5               Dsus2               A            E5                 Dsus2
-|-----------------------|-----------------0---0---|------------------------|
-|-----------------------|-----------------0---0---|------------------------|
-|-14b---14br12----------|-------------------------|--14b--14b--14-12----12-|
-|----------------12-----|--12--11-----------------|------------------14----|
-|-----------------------|-------------------------|------------------------|
-|-----------------------|-------------------------|------------------------|
                                                                              
                 A        E5                   Dsus2                A
-|-----------------------|-------------------------|------------------------|
-|-----------------------|-------------------------|------------------------|
-|----12------------12-14|----14b----14br12--------|----------------14--14--|
-|-14----12------14------|---------------------12--|--12----11--------------|
-|-----------------------|-------------------------|------------------------|
-|-----------------------|-------------------------|------------------------|
                                                                              
  E5                 Dsus2              A           E5                 Dsus2
-|-----------------------|------------------0---0--|------------------------|
-|-----------------------|------------------0---0--|------------------------|
-|-14b-14b-14br0--0------|-------------------------|--14b-14b-14br0--0------|
-|-------------0--0--12--|---12--11----------------|--------------0--0--12--|
-|-----------------------|-------------------------|------------------------|
-|-----------------------|-------------------------|------------------------|
                                                                              
              A           E5                  Dsus2              A
-|----------------0---0--|-------------------------|------------------0--0--|
-|----------------0---0--|-------------------------|------------------0--0--|
-|-----------------------|--14b-14b-14br0--0-------|------------------------|
-|-12---11---------------|--------------0--0--12---|--12---11---------------|
-|-----------------------|-------------------------|------------------------|
-|-----------------------|-------------------------|------------------------|
                                                                              
  E5                         Dsus2                  A                 E5 (let ring)
-|--------------------------------|----------------------------------|------|
-|--------------------------------|----------------------------------|------|
-|14b-14b-14b-14b-14b-14b-14b-14b-|-14b-14b-14b-14b-14b-14b-14b-14b--|--14--|
-|--------------------------------|----------------------------------|------|
-|--------------------------------|----------------------------------|------|
-|--------------------------------|----------------------------------|------|
                                                                              
Comments