Oasis - Champagne Supernova Live Chords & Tabs

 

Champagne Supernova Live Chords & Tabs

Oasis Chords & Tabs

Version: 1 Type: Tab 0 ratings
1 star 2 stars 3 stars 4 stars 5 stars
comments

Champagne Supernova Live Tab

   
this is the intro and solo to champagne supernova, they're taken off the live album 
(familiar to millions!!)

intro 

e --------------------------------------------------------
B ---------0---------------0---------------0--------------
G -----2-----2---------2-----2---------2-----2------------
D ---2---2-----2-----2---2-----2-----2---2-----2----------
A -0-------------0----------------------------------------
E -----------------3-------------3-2----------------------

e -------------0-------- do this twice before liam begins to
B -----------0-----0---- sing. then do it another 7 times. 
G -------2-------2---2-- this covers over the chorus and 2nd
D -----2---2------------ verse.
A ----------------------
E -2-0------------------

 then comes the verse the second time...

 E  A  G  F#m G2  A2  D
 0  0  3   0  3   5   2
 0  2  3   2  3   5   3
 1  2  0   2  4   6   2
 2  2  0   0  5   7   0
 2  0  2   0  5   7   0
 0  0  3   2  3   5   0

once you have played the intro, theres a part which plays "E" for 8 counts. it then goes

                   A                           G
someday you will find me, caught beneath the landslide

      F#m                        E
in a champagne supernova in the sky

                   A                           G
someday you will find me, caught beneath the landslide

       F#m                    E
in a champagne supernova, champagne supernova

        G2     
cause people believe, that they're gonna getb away for the 

A2
summer

e ----------------------12-------
B -12bb-10--------10-12bbbr-10---   b = bend
G ---------9-9h10----------------   r = release bend
D -------------------------------
A -------------------------------
E -------------------------------

    G2
but you and i will never die

     D
the world still spinning round

              E
we dont know why.....why,why,why,why

then its the second chorus. just play the intro again. it then leads back into the chorus. just play it again. except from 1 little part. when he says the word "summer" again. he plays a different solo. i dont know how to play it, so you'll have to figure it out yorself. now for the solo.


solo

e ---------------------------------------------------------
B ----------------------8-8-------5---5---5-5--------------
G -7bbbb-5----5---5-7s9-----9-7-5-5---5---5-5--------------
D -7bbbb---7----7-------------------7---7-----7------------
A ---------------------------------------------------------
E ---------------------------------------------------------
[ Tab from: http://www.guitartabs.cc/tabs/o/oasis/champagne_supernova_live_tab.html ]
e ---------------------------------------------------------
B ---------------------------------------------------------
G -------5-----------------------9bbb-7-4---------9bbb-7-4-
D -5-5h7---7-5---------------------------------------------
A -------------7-5-----------------------------------------
E -----------------8-5-3-5-3-3-5----------5-3-3-5----------

e ---------------------------------------------------------
B ---------------------------------------------------------
G ---------9bbb-8-9b-11b-12b-13b-12-12-13b-12-12-13b-------
D ---------------------------------------------------------
A ---------------------------------------------------------
E -5-3-3-5-------------------------------------------------

e ---------------------------------------------------------
B ---------------------------------------------------------
G -11-11-12b-11-11-12b-10-10-11b-10-10-11b-8-8-9b-6-6-7b---
D ---------------------------------------------------------
A ---------------------------------------------------------
E ---------------------------------------------------------

e -12-12-12-12-12-10----12-12-12h15-12h15-12h15-10---------
B -------------------12----------------------------12------
G ---------------------------------------------------------
D ---------------------------------------------------------
A ---------------------------------------------------------
E ---------------------------------------------------------

e -10b-------10--12-12br-10----10--------------------------
B -----12-10----------------12----12-10-12-10--------------
G --------------------------------------------9-9b-7---7---
D ---------------------------------------------------9---9-
A ---------------------------------------------------------
E ---------------------------------------------------------

e ---------------------------------------------------------
B -10-8----------------------------------------------------
G ------7h9p7-5-7br-5--------------------------------------
D --------------------7------------------------------------
A ---------------------------------------------------------
E ----------------------5-7-5-7-5-7-5-5^^s-3^^s-2^^s-0^^^^^

i dont know if this is accurate, but its as accurate as i can make it out to be.it then 
goes back to the piece thats played at the intro, till it gets to the outro.....

e ---------------------------------------------------------
B ------------------------------5-2------------------------
G -4br-2-------2-2--4-4br-2-4h6-----4s---------------------
D -------2-2h4---------------------------------------------
A ---------------------------------------------------------
E ---------------------------------------------------------
              
           b = bend  r = release bend  h = hammer on
           p = pick off  ^ = let vibrate  s = slide up

thats it. well, almost all of it. if you like this and you'd like another piece of the 
song for me to give to you. give me a shout at dj_mar2@hotmail.com

enjoy
Comments