Oasis - Born On A Different Cloud Chords & Tabs

 

Born On A Different Cloud Chords & Tabs

Oasis Chords & Tabs

Version: 1 Type: Bass Tab 0 ratings
1 star 2 stars 3 stars 4 stars 5 stars
comments

Born On A Different Cloud Bass Tab

   
Date: Thr, 22 AUG 2003 17:05:29 +0000
From: Chris C 
Album: Heathen Chemistry
Song: Born On A Different Cloud : Track10
Written By: Liam Gallagher 
Tabbed By: Chris Calland


INtro: No Bass

Chorus1: No Bass

Verse:


G|----------------------------------------------------------------------------|
D|----------------------------------------------------------------------------|
A|-12---12---12---12--12--12--12--12--10----10---10----10---10---10---10--10--|
E|----------------------------------------------------------------------------|

  

G|----------------------------------------------------------------------------|
D|----------------------------------------------------------------------------|
A|--8----8----8----8---8---8---8---8---7-----7----7-----7-------------7/8/107|
E|----------------------------------------------------------------------------|

Bridge 1:

 

G|----------------------------------------------------------------------------|
D|----------------------------------------------------------------------------|
A|-5----------5-------------5-----7-----8----10-------------------------------|
E|---------5-----------5-------------------------------5--------0------5-----0|

                                    

G|----------------------------------------------------------------------------|
D|----------------------------------------------------------------------------|
A|------------------------5----------5-------------5-----7-----8-----10-------|
E|-5-5-5-5---7---8----------------5-----------5-------------------------------|

      I

G|----------------------------------------------------------------------------|
D|----------------------------------------------------------------------------|
A|-----------------------------------------------------------------7----------|
E|----5----------0----------5---------0----0----0(ring)-----------------------|

chorus 2:

  Born On A Dif-fe-rent Cloud,      

G|----------------------------------------------------------------------------|
D|----------------------------------------------------------------------------|
A|-12---12---12---12--12--12--12--12--10----10---10----10---10---10---10--10--|
E|----------------------------------------------------------------------------|



G|----------------------------------------------------------------------------|
D|----------------------------------------------------------------------------|
A|--8----8----8----8---8---8---8---8--10----10---10----10---10---10---10--10--|
E|----------------------------------------------------------------------------|

Solo:

 
G|----------------------------------------------------------------------------|
D|----------------------------------------------------------------------------|
A|-12---12---12---12--12--12--12--12--10----10---10----10---10---10---10--10--|
E|----------------------------------------------------------------------------|

  

G|----------------------------------------------------------------------------|
D|----------------------------------------------------------------------------|
A|--8----8----8----8---8---8---8---8---7-----7----7-----7----7-----7--------7-|
E|----------------------------------------------------------------------------|

Bridge 2:

      

G|----------------------------------------------------------------------------|
D|----------------------------------------------------------------------------|
A|------------10-10--10--10--10--10--10-10--12--12--12--12--12--12--12--12--12|
E|----------------------------------------------------------------------------|

              
[ Tab from: http://www.guitartabs.cc/tabs/o/oasis/born_on_a_different_cloud_btab.html ]
G|----------------------------------------------------------------------------|
D|----------------------------------------------------------------------------|
A|--10---10----10----10----10----10----10-----10----12----12----12----12--12--|
E|----------------------------------------------------------------------------|

       

G|----------------------------------------------------------------------------|
D|----------------------------------------------------------------------------|
A|-12--12--12--10--10--10--10--10--10--10--10--12----12---12----12---12---12--|
E|----------------------------------------------------------------------------|

          

G|----------------------------------------------------------------------------|
D|----------------------------------------------------------------------------|
A|--12----12----10---10---10---10--10--10--10--10----7--7--7--7--7--7--7--7---|
E|----------------------------------------------------------------------------|

Chorus 3:

  We're Born On A Dif-fe-rent Cloud,    

G|----------------------------------------------------------------------------|
D|----------------------------------------------------------------------------|
A|-12--------------------------------------12---------------------------------|
E|----------------------------------------------------------------------------|

G|-----------------------|
D|-14--12----------------|
A|--------14--12---10----|
E|-----------------------|

 
 
G|----------------------------------------------------------------------------|
D|----------------------------------------------------------------------------|
A|-8----------------------------------------10--------------------------------|
E|----------------------------------------------------------------------------|

G|--------------------------|
D|-------12-14/17-14-12-----|
A|-12-14----------------14--|
E|--------------------------|



G|----------------------------------------------------------------------------|
D|----------------------------------------------------------------------------|
A|-12----------------------------12---------10---10---10---10--10--10--10--10-|
E|----------------------------------------------------------------------------|

 

G|----------------------------------------------------------------------------|
D|----------------------------------------------------------------------------|
A|-8----8----8-----8-----8-----8----8---8---10---10---10---10--10--10--10--10-|
E|----------------------------------------------------------------------------|
 
 

G|----------------------------------------------------------------------------|
D|----------------------------------------------------------------------------|
A|-12---12---12----12----12----12---12--12--10---10---10---10--10--10--10--10-|
E|----------------------------------------------------------------------------|


G|----------------------------------------------------------------------------|
D|----------------------------------------------------------------------------|
A|-8----8----8-----8-----8-----8----8---8---10---10---10---10--10--10--10--10-|
E|----------------------------------------------------------------------------|

Outro:

G|-------------------------------------------|
D|----------------12h14----------------12h14-|
A|-12-12-12-12h14-------12-12-12-12h14-------|
E|-------------------------------------------|


G|-------------------------------------------|
D|-------------------------------------------|
A|-10-10-10-10h12s14s17-10-10-10-10h12s14s17-|
E|-------------------------------------------|


G|-------------------------------------------|
D|-------------------------------------------|
A|-8--8--8--8h10s12s15--8--8--8--8h10s12s15--|
E|-------------------------------------------|


G|-------------------------------------------|
D|-------------------------------------------|
A|-10-10-10-10h12s14s17-10-10-10-10h12s14s17-|Repeat till fade
E|-------------------------------------------|

there we go thats that song, well i think its right i you know anything to in improve 
it please email me you version (redhot_chris@hotmail.com listen to the track for timing.
Comments