Oar - Road Outside Columbus Chords & Tabs

 

Road Outside Columbus Chords & Tabs

Oar Chords & Tabs

Version: 1 Type: Tab 0 ratings
1 star 2 stars 3 stars 4 stars 5 stars
comments

Road Outside Columbus Tab

OAR
Road Outside Columbus

lead
e|-12-12-12-11-9--------|
B|-9--9--9--9--9-12-10--|
G|-9--9--9--9--9-9--9---|
D|-9--9--9--9--9-9--9---|
A|----------------------|
E|----------------------|

e|-9--9--9--9--x-9--9--9--9------|
B|-9--9--9--9--x-9--9--9--9------|
G|-9--9--9--9--x-9--9--9--9------|
D|-11-11-11-11-x-11-11-11-11-----|
A|-11-11-11-11-x-11-11-11-11-----|
E|-9--9--9--9--x-9--9--9--9------|

e|-7-7-7-7--------------|
B|-5-5-5-5-5-7/9-7-5----|
G|-6-6-6-6-6-6---6-6----|
D|-7-7-7-7-7-7---7-7----|
A|----------------------|
E|----------------------|

[ Tab from: http://www.guitartabs.cc/tabs/o/oar/road_outside_columbus_tab.html ]
e|------------------------------|
B|-9-9-9-x-10-10-10-/-12-12-12--|
G|-x-x-x-x-x--x--x--/-x--x--x---|
D|-x-x-x-x-x--x--x--/-x--x--x---|
A|-7-7-7-x-9--9--9--/-11-11-11--|
E|------------------------------|


Intro/Verse
e---7---4---5---7---|
b---9---5---5---9---|
g---9---6---6---9---|
d---9---6---7---9---|
a---7---4---7---7---|
E---7---4---5---7---|

Chorus

e-------4---4---5---7---|
b-------4---5---5---7---|
g---1---4---6---6---8---|
d---2---6---6---7---9---|
a---2---6---4---7---9---|
E-------4---4---5---7---|

Bridge

e---2---4---5---9----7---|
b---2---4---5---9----7---|
g---3---5---6---10---8---|
d---4---6---7---11---9---|
a---4---6---7---11---9---|
E---2---4---5---9----7---|


Questions/Comments:
joshpwc@yahoo.com

or

oarsa.org
Comments