Oar - Right On Time Chords & Tabs

 

Right On Time Chords & Tabs

Oar Chords & Tabs

Version: 2 Type: Tab 0 ratings
1 star 2 stars 3 stars 4 stars 5 stars
comments

Right On Time Tab

   
---------------------------------------------------------------------------
			     RIGHT ON TIME-OAR




Tabbed by: ORIOLESAZB
Email:------------

Tuning: STANDARD

HERE IT IS!  THE TAB TO THIS GREAT SONG!  I LIKE IT AND I HOPE U WILL 2!

BASIC RIFF: 2 GUITARS HERE 

GUITAR 2(POWERCHORDS): DISTORTION

REPEAT 3 TIMES
e|----------------------------------------|
B|-------------------------------3-3-3-3-3|
G|-7-7-7-7-7-6-6-6-6-6-4-4-4-4-4-X-X-X-X-X|
D|-7-7-7-7-7-6-6-6-6-6-4-4-4-4-4-4-4-4-4-4|
A|-5-5-5-5-5-4-4-4-4-4-2-2-2-2-2-2-2-2-2-2|
E|----------------------------------------|

BASIC RIFF GUITAR 1 (SOLO RIFF): DISTORTION
[ Tab from: http://www.guitartabs.cc/tabs/o/oar/right_on_time_tab_ver_2.html ]
REPEAT 8 TIMES
e|------------------|
B|------------------|
G|-----7---9h7---7--|
D|-7-9---9-----9---9|
A|------------------|
E|------------------|

DURING VERSE PLAY THIS IN ACCORDANCE TO SONG/LET RING

e|-5|
B|-7|
G|-7|
D|-7|
A|-5|
E|--|

AT END OF CHORUS PLAY THIS..."WHERE HAVE U BEEN"

REPEAT 4 TIMES!
e|--------|
B|--------|
G|-7-6-7-4|
D|-7-6-7-4|
A|-5-4-5-2|
E|--------|

DURING BRIDGE STRUM THIS

e|-5-2|
B|-7-4|
G|-7-4|
D|-7-4|
A|-5-2|
E|----|

THATS IT WHEN IN DOUBT STICK TO MAIN RIFF!  IM PRETTY SURE ITS 100%...SEND ME ANY
COMMENTS!!! AND GOOD PLAYING!

| /  slide up
| \  slide down
| h  hammer-on
Comments