Oar - Night Shift Chords & Tabs

 

Night Shift Chords & Tabs

Oar Chords & Tabs

Version: 1 Type: Bass Tab 0 ratings
1 star 2 stars 3 stars 4 stars 5 stars
comments

Night Shift Bass Tab

OAR - Night Shift
Tabbed By: Taylor Shelton
EMail: taylor@globalhemp.com


chorus:
G-----------------------------------
D-----------------------5-5--7------
A---------------5--55---------------
E-5--55--5/3\5----------------------
[ Tab from: http://www.guitartabs.cc/tabs/o/oar/night_shift_btab.html ]
verse:
G------------------------------------
D---------------------------0-0-2----
A--------2--22--0--00-----4---------4 
E-2--22------------------------------

since benj is a great bass player he mixesthis up a little bit through the song. 
so just listen for those.
Comments